Song name
# A B C D E F G H I J K L M N O P Q R S T U V W X Y Z

Anti-flag - The Smartest Bomb tab

There was no tab for Smartest bomb, so here is. The lead guitar is wrong, but I think if
you want to do a cover without being caught up in making a carbon copy its alright.
There may be some parts wrong,and I worked this out from looking at the bass tab and 
listening to the song. Please send me an email if you know the actual parts that I got 
wrong ...
anyway, enjoy - Saintjimmy1999@hotmail.com , Chris Bingham

Key:
~ = Ring out
> = Pick Slide/Scrape
* = Palm mute
/ = Slide

INTRO

E|----------------------|
B|----------------------|
G|-8~-------------4~-6~-| x 2
D|-8~---9~---6~---4~-6~-|
A|-6~---9~---6~---2~-4~-|
E|------7~---4~---------|

Bridge (Lead)

E|---------------------|
B|-----------------9---|
G|--86-886-886-886--8--|  x 2
D|----8---9---9---9----|
A|---------------------|
E|---------------------|

Bridge (Rythm)

E|-------------------------------------|
B|-------------------------------------|
G|--8888888888888888-------------------| x 2
D|--8888888888888888-9999999999999999--|
A|--6666666666666666-9999999999999999--|
E|-------------------7777777777777777--|

Verse

E|--------------------------------------------|
B|--------------------------------------------|
G|--8888888888888888--------------------------|
D|--8888888888888888-8/999-8/999-8/777-8/777--| x 2
A|--6666666666666666-8/999-8/999-8/777-8/777--|
E|-------------------6/777-6/777-6/777-6/777--|
    ****************

The other Bridge (Your so, In control,.... )

E|---------------------|
B|---------------------|
G|-888-------888-------|
D|-888--999--888--999--|
A|-666--999--666--999--|
E|------777-------777--|

Repeat the above verse and 2nd Bridge then: (the 11's are Elevens,F#)

E|----------------------------------------------------------------------|
B|----------------------------------------------------------------------|
G|-11111111111111111111111111111111-44444444-6666-4444-66666666-88888888|
D|-11111111111111111111111111111111-44444444-6666-4444-66666666-88888888|
A|--9-9-9-9-9-9-9-9-9-9-9-9-9-9-9-9-22222222-4444-2222-44444444-66666666|
E|----------------------------------------------------------------------|

E|--------------------|
B|--------------------|
G|-44444444------4444-|
D|-44444444-6666-4444-| x 2
A|-22222222-6666-2222-|
E|----------4444------|

Intermission - Part 1

E|---------------|
B|---------------|
G|8~--3~--4~-----| x 2
D|8~--3~--4~--6~-|
A|6~--1~--2~--6~-|
E|------------4~-|

Part 2

(KILL TONIGHT! Will you follow? ...)

E|----------------------------------------|
B|----------------------------------------|
G|--888--333--444-------888--333--444-----|
D|--888--333--444--666--888--333--444--6~-|
A|--666--111--222--666--666--111--222--6~-|
E|-----------------444-----------------4~-|

Final Chorus

E|------------------------------------------------------------|
B|------------------------------------------------------------|
G|--8888888888888888--44444444------------44444444--66666666--|
D|--8888888888888888--44444444--66666666--44444444--66666666--| x 4
A|--6666666666666666--22222222--66666666--22222222--44444444--|
E|------------------------------44444444----------------------|

This songs the smartest bomb!

Keep punk rock alive you mutha fuckers!
Tap to rate this tab
# A B C D E F G H I J K L M N O P Q R S T U V W X Y Z