Song name
# A B C D E F G H I J K L M N O P Q R S T U V W X Y Z

Anti-flag - Right To Choose tab

standard tuning   email compliments at jibjab210@yahoo.com
this is my first tab :)i feel so special!!!

e-----------------------------------------------------------|
b-----------------------------------------------------------|
g-6666-9999-------------------------------------------------|
d-6666-9999-9999-7------------------------------------------|
a-4444-7777-9999-7--Ring------------------------------------|
E-----------7777-5------------------------------------------| repeat

verse
e-----------------------------------------------------------|
b-----------------------------------------------------------|
g-66--6-4---99--9-9-----------------------------------------|
d-66--6-4---99--9-9---99--9-9---77--7-7---------------------|
a-44--6-4---77--7-7---99--9-9---77--7-7---------------------|
E---------------------77--7-7---55--5-5---------------------|
bridge( i think thats what it is idunno)
e--4-0-7-4-0-9-9-7-4-0-4-2-|
b-2------------------------|
g--------------------------|
d--------------------------|
a--------------------------|
E--------------------------|

chorus lead (rhythm guitar plays intro 4x, but each chord is played 8x the first time)
e----------------------------------------------------|
b-54-54-54-54-54-54-0-54-54-54-54-54-54-7 play this--| 2x
g----------------------------------------------------|
d----------------------------------------------------|
a----------------------------------------------------|
E----------------------------------------------------|

2nd bridge lead, after verses (rhythm plays intro, same as before)
e7-4-0--7-4-0--------5-4---------------------------------4--------|
b-----2-------2--4-5-------2----54-54-0---54-54-7--54-54----------|
g-----------------------------------------------------------------|
d-----------------------------------------------------------------|
a-----------------------------------------------------------------|
E-----------------------------------------------------------------|

ending
e7-4-0-7-4-0-7-4-7-4-0--|  im lazy so figure the order out yourself (and the
b-----------------------|  rest of the rhythm guitar for that matter) also I
g-----------------------|  havent listened to it for awhile, so the order may
d-----------------------|  be messed up towards the end. have fun :),this
a-----------------------|  this is a great song and anti-flag RULES.
E-----------------------|
Tap to rate this tab
 
# A B C D E F G H I J K L M N O P Q R S T U V W X Y Z