Song name
# A B C D E F G H I J K L M N O P Q R S T U V W X Y Z

Anti-flag - Anatomy Of Your Enemy tab

This the informal song on mobilize, my dad helped me tab the chorus, it sounds
pretty similiar to the real thing, which no one bu AF knows

intro(main guitar):

e--------------------------------------------------
B--------------------------------------------------
G--------------------------------------------------   
D--9--------13-16----------------------------------
A--9--------13-16----------------------------------
E--7--------11-14----------------------------------


Verse:(not the ringing chord that u hear


e---------------------------------------------------
B---------------------------------------------------
G---------------------------------------------------  a lot of times
D------9---------------------------11-7-------------
A------9---------------------------11-7-------------
E------7----------------------------9-5-------------



e--------------------------------------------------------
B--------------------------------------------------------
G--------------------------------14-14-14-14-14-14-14-14-
D-----9----------------------11--14-14-14-14-14-14-14-14-
A-----9----------------------11--12-12-12-12-12-12-12-12-
E-----7-----------------------9--------------------------

chorus
e----------------------------------------------------
B----------------------------------------------------
G----------------------------------------------------
D--9*--11*--13*----14-15-16-14-----------------------
A--9*--11*--13*----14-15-16-14-----------------------
E--7*---9*--11*----12-13-14-12-----------------------

e--------------------------------------------
B--------------------------------------------
G--------------------------------------------
D--9*--11-13-14-11---------------------------
A--9*--11-13-14-11---------------------------
E--7*---9-11-12--9---------------------------


outro

e-------------------------------------------
B-------------------------------------------
G-------------------------------------------
D---9-11-13-15-14-15-13-11-9----------------     4 or 5 times i think
A---9-11-13-15-14-15-13-11-9----------------
E---7--9-11-13-12-13-11--9-7----------------
Tap to rate this tab
# A B C D E F G H I J K L M N O P Q R S T U V W X Y Z