Song name
# A B C D E F G H I J K L M N O P Q R S T U V W X Y Z

Anti-flag - Punk By The Book tab

-------------------------------------------------------------------------------
			Punk By the Book - Anti-Flag
-------------------------------------------------------------------------------
Tabbed by: Andres 'silvadolla' Ali
Email: andres.ali@gmail.com

Tuning: EADGBE (STANDARD)

Simple song, straight and to the point. Enjoy!

Intro/Verse x3:
e|---------------------------------------------------------------------------|
B|---------------------------------------------------------------------------|
G|---------------------------------------------------------------------------|
D|--6-6-6-6----8-8-8-8------4-4-4-4------6-6-6-6-----------------------------|
A|--4-4-4-4----6-6-6-6------2-2-2-2------4-4-4-4-----------------------------|
E|---------------------------------------------------------------------------|

e|---------------------------------------------------------------------------|
B|---------------------------------------------------------------------------|
G|---------------------------------------------------------------------------|
D|--6-6-6-6----8-8-8-8------4-4-4-4------4-4-4-4-----------------------------|
A|--4-4-4-4----6-6-6-6------2-2-2-2------2-2-2-2-----------------------------|
E|---------------------------------------------------------------------------|

e|---------------------------------------------------------------------------|
B|---------------------------------------------------------------------------|
G|---------------------------------------------------------------------------|
D|--6-6-6-6----8-8-8-8------4-4-4-4------6-6-6-6-----------------------------|
A|--4-4-4-4----6-6-6-6------2-2-2-2------4-4-4-4-----------------------------|
E|---------------------------------------------------------------------------|

e|---------------------------------------------------------|
B|---------------------------------------------------------|
G|---------------------------------------------------------|
D|--6-6-6-6----8-8-8-8------4------------------------------|
A|--4-4-4-4----6-6-6-6------2------------------------------|
E|---------------------------------------------------------|

Chorus
e|---------------------------------------------------------------------------|
B|---------------------------------------------------------------------------|
G|---------------------------------------------------------------------------|
D|-3-3-3-3-3-3-3-3---8--6-6-6-6-6-6-6--8-------------------------------------|
A|-1-1-1-1-1-1-1-1---6--4-4-4-4-4-4-4--6-------------------------------------|
E|---------------------------------------------------------------------------|x3

e|---------------------------------------------------------------------------|
B|---------------------------------------------------------------------------|
G|---------------------------------------------------------------------------|
D|-3-3-3-3-3-3-3-3--8--6----6----6-6--6-6------------------------------------|
A|-1-1-1-1-1-1-1-1--6--4----4----4-4--4-4------------------------------------|
E|---------------------------------------------------------------------------|


Verse
e|---------------------------------------------------------------------------|
B|---------------------------------------------------------------------------|
G|---------------------------------------------------------------------------|x2
D|--6-6-6-6----8-8-8-8------4-4-4-4------6-6-6-6------6-6-6-6---8-8-8-8--4---|
A|--4-4-4-4----6-6-6-6------2-2-2-2------4-4-4-4------4-4-4-4---6-6-6-6--2---|
E|---------------------------------------------------------------------------|

e|---------------------------------------------------------------------------|
B|---------------------------------------------------------------------------|
G|---------------------------------------------------------------------------|
D|--6-6-6-6----8-8-8-8------4-4-4-4------6-6-6-6-----------------------------|
A|--4-4-4-4----6-6-6-6------2-2-2-2------4-4-4-4-----------------------------|
E|---------------------------------------------------------------------------|

e|---------------------------------------------------------------------------|
B|---------------------------------------------------------------------------|
G|---------------------------------------------------------------------------|
D|--6-6-6-6----8-8-8-8------4-4-4-4------4-4-4-4-----------------------------|
A|--4-4-4-4----6-6-6-6------2-2-2-2------2-2-2-2-----------------------------|
E|---------------------------------------------------------------------------|

Chorus
e|---------------------------------------------------------------------------|
B|---------------------------------------------------------------------------|
G|---------------------------------------------------------------------------|
D|-3-3-3-3-3-3-3-3---8--6-6-6-6-6-6-6--8-------------------------------------|
A|-1-1-1-1-1-1-1-1---6--4-4-4-4-4-4-4--6-------------------------------------|
E|---------------------------------------------------------------------------|x3

e|---------------------------------------------------------------------------|
B|---------------------------------------------------------------------------|
G|---------------------------------------------------------------------------|
D|-3-3-3-3-3-3-3-3--8--6----6----6-6--6-6------------------------------------|
A|-1-1-1-1-1-1-1-1--6--4----4----4-4--4-4------------------------------------|
E|---------------------------------------------------------------------------|

Outro x2:

e|---------------------------------------------------------------------------|
B|---------------------------------------------------------------------------|
G|---------------------------------------------------------------------------|
D|---6-6-6-6---8-8-8-8---6-6-6-6---8-8-8-8-----------------------------------|
A|---4-4-4-4---6-6-6-6---4-4-4-4---6-6-6-6-----------------------------------|
E|---------------------------------------------------------------------------|

e|---------------------------------------------------------------------------|
B|---------------------------------------------------------------------------|
G|---------------------------------------------------------------------------|
D|---6-6-6-6---8-8-8-8---6-4-4-4-4-4-4-4-------------------------------------|
A|---4-4-4-4---6-6-6-6---4-2-2-2-2-2-2-2-------------------------------------|
E|---------------------------------------------------------------------------|

End C#5

If you notice any errors or would like to suggest something, please email me at 
Thanks.

Anti-Flag kicks ass!


| /  slide up
| \  slide down
| h  hammer-on
| p  pull-off
| ~  vibrato
| +  harmonic
| x  Mute note
===============================================================================
Tap to rate this tab
# A B C D E F G H I J K L M N O P Q R S T U V W X Y Z