Song name
# A B C D E F G H I J K L M N O P Q R S T U V W X Y Z

Anti-flag - The Panama Deception tab

i was lazy to tab this whole sh!t out so i just found a good tab modified it a bit
and added the guitar that plays the other solo behind guitar 1...the tab is from
PunxNOTdeaD101@hotmail.com...so props for him and thanks man!!! u saved me time.
so in other words...give me credit for the solo behind the solo and the things i
modified...haha...l8r dudes...and dudettes;)

* - not exact number of strokes
M - palm mute

  INTRO
e|----------------|
B|----------------| play it with the 8's for more sound
G|-8*--4*------3*-| but it sounds good with just the 8 in the 4th string
D|-8*--4*--4*--3*-|
A|-6*--2*--4*--1*-|
E|-6*------2*-----|

  00:05 Their 2+2 does not equal 4...
e|----------------|
B|----------------| x4
G|-8*--4*------3*-|
D|-8*--4*--4*--3*-|
A|-6*--2*--4*--1*-|
E|-6*------2*-----|

  00:15 ABOUT FACE! - snap to attention...
e|--------------|---------------------|--------------|--------------|
B|--4*--7*--6*--|--4-4-4-4--7-7--6----|--4*--7*--6*--|--4*--7*--6---|
G|--3*--6*--6*--|--3-3-3-3--6-6----6--|--3*--6*--6*--|--3*--6*--6---|
D|--1*--4*--6*--|--1-1-1-1--4-4-------|--1*--4*--6*--|--1*--4*--6---|
A|----------4*--|---------------------|----------4*--|----------4---|
E|--------------|---------------------|--------------|--------------|

  00:35 Time and again they manufacture a cause...
e|----------------|
B|----------------| x4
G|-8*--4*------3*-|
D|-8*--4*--4*--3*-|
A|-6*--2*--4*--1*-|
E|-6*------2*-----|

  00:45 Killing - to further the interest of private corporations...
e|----------------|      |--------------------|
B|-M---M----------|      |--M---M-------------|
G|-8*--4*--M---3*-| x3   |--8*--4*---------3--|
D|-8*--4*--4*--3*-|      |--8*--4*--4-4-4--3--|
A|-6*--2*--4*--1*-|      |--6*--2*--4-4-4--1--|
E|-6*------2*-----|      |--6*------2-2-2-----|

  00:57 ABOUT FACE! - snap to attention...
e|--------------|---------------------|--------------|----------|
B|--4*--7*--6*--|--4-4-4-4--7-7--6----|--4*--7*--6*--|--4*--7*--|
G|--3*--6*--6*--|--3-3-3-3--6-6----6--|--3*--6*--6*--|--3*--6*--|
D|--1*--4*--6*--|--1-1-1-1--4-4-------|--1*--4*--6*--|--1*--4*--|
A|----------4*--|---------------------|----------4*--|----------|
E|--------------|---------------------|--------------|----------|

  01:16 SOLO
e|--------------------------6-------------------|
B|------------------------7---7-7--6------------|
G|------------------------------------8-6-------|
D|-----------------9----------------------------|
A|--9--8--6---8-6-------------------------------|
E|----------------------------------------------|

  01:22
e|-------------------6--------------------------|
B|-----------------7---7-6~---------------------|
G|----------------------------------------------|
D|-----------9----------------------------------|
A|--6---8-6-------------------------------------|
E|----------------------------------------------|

  01:27
e|-------------------6--------------------------|
B|-----------------7---7-7--6-------------------|
G|-------------------------------8-6------------|
D|-----------9----------------------------------|
A|--6---8-6-------------------------------------|
E|----------------------------------------------|

  01:31
e|----------------6-----------------------------|
B|--------------7---7-6~-6~-6~-6~---6~-6~-6~-6~-|
G|----------------------------------------------|
D|-----------9----------------------------------|
A|--6---8-6-------------------------------------|
E|----------------------------------------------|

  01:16 solo behind other solo
e|----------------------|-1 & 3--|-2nd--|-after 3----------------|
B|--------7--6----------|--time--|-time-|----------------6--7--6-|
G|--------------8--6----|--------|------|----------6--8----------|
D|--------------------8-|-9-88-6-|-9--8-|----8--9----------------|
A|-*(9--8--6)*----------|--------|------|------------------------|
E|----------------------|--------|------|------------------------|
 *() is other solo, just to show this solo begins

  01:45     Our lives reflect TV sitcoms and tragedies...
e|------------------|-------------------------|
B|--M---M-------M---|--M---M------------------|
G|--8*--4*--M---3*--|--8*--4*--M---3-3-3-3----|
D|--8*--4*--4*--3*--|--8*--4*--4*--3-3-3-3----|
A|--6*--2*--4*--1*--|--6*--2*--4*--1-1-1-1----|
E|----------2*------|----------2*-------------|

  01:52 "How many of you dont see...
e|-----------------------|-------------------------------------|
B|--M---M----------------|--M-M----M-M-------------------------|
G|--8*--4*--M---3-3-3-3--|--8-8-8--4-4-4--M-M----3-3-3-3-------|
D|--8*--4*--4*--3-3-3-3--|--8-8-8--4-4-4--4-4-4--3-3-3-3--<-2X-|
A|--6*--2*--4*--1-1-1-1--|--6-6-6--2-2-2--4-4-4--1-1-1-1-------|
E|----------2*-----------|----------------2-2-2----------------|

  02:03 Gung ho and true - to the Stars and Stripes, They fuckin' brainwashed you...
e|-------------------------|-------------------------------------|
B|-M---M-------------------|--M-M----M-M-------------------------|
G|-8*--4*--M---3-3-3-3-----|--8-8-8--4-4-4--M-M----3-3-3-3-------|
D|-8*--4*--4*--3-3-3-3-<2x-|--8-8-8--4-4-4--4-4-4--3-3-3-3--<-2X-|
A|-6*--2*--4*--1-1-1-1-----|--6-6-6--2-2-2--4-4-4--1-1-1-1-------|
E|---------2*--------------|----------------2-2-2----------------|

  02:17 The media's a business...
e|-------------------------------------|---------------------------------|
B|-M-M----M-M--------------------------|--M-M----M-M---------------------|
G|-8-8-8--4-4-4--M-M----3-3-3-3--------|--8-8-8--4-4-4--M-M----3-3-3-3---|
D|-8-8----4-4----4-4-4--3-3-3-3--<-2X--|--8-8-8--4-4-4--4-4-4--3-3-3-3-<-|2X
A|-6-6----2-2----4-4----1-1-1-1--------|--6-6-6--2-2-2--4-4-4--1-1-1-1---|
E|---------------2-2-------------------|----------------2-2-2------------|

  02:31 Life must be so easy, when you don't have to think...
e|------------------|------------------|------------------|-----------------|
B|--M---M-------M---|--M---M-------M---|--M---M-------M---|--M---M----------|
G|--8*--4*--M---3*--|--8*--4*--M---3*--|--8*--4*--M---3*--|--8*--4*--M---3--|
D|--8*--4*--4*--3*--|--8*--4*--4*--3*--|--8*--4*--4*--3*--|--8*--4*--4*--3--|
A|--6*--2*--4*--1*--|--6*--2*--4*--1*--|--6*--2*--4*--1*--|--6*--2*--4*--1--|
E|----------2*------|----------2*------|----------2*------|----------2*-----|

  02:45                      To get through...!!!!!
intro/outro
e|----------------|
B|----------------|
G|-8*--4*------3*-|
D|-8*--4*--4*--3*-|
A|-6*--2*--4*--1*-|
E|-6*------2*-----|


Fill(play with outro)
start w/first bar..the others are endings to the 1st bar

e|----------|-1 & 2--ending-|--3rd ending-----|-4th ending-|
B|----------|---------------|-----------------|------------|
G|--88-6/88-|-6/8--10-11-10-|--6/13--11-10-11-|--6/13------|
D|--xx-x/xx-|-x/x--x--x--x--|--x-x---x--x--x--|--x/x-------|
A|--66-4/66-|-4/6--8--9--8--|--4/11--9--8--9--|--4/11------|
E|----------|---------------|-----------------|------------|

question or comments, whatever...sk8ing_monkey9@hotmail.com
Tap to rate this tab
# A B C D E F G H I J K L M N O P Q R S T U V W X Y Z