Song name
# A B C D E F G H I J K L M N O P Q R S T U V W X Y Z

Anti-flag - This Machine Kills Fascists tab

Artist: Anti-flag
Album:Underground Network
Song: This Machine Kills Fascists
Tabed by: JustnHav

<- pick scrape 
*- play a few times 
M- palm mute 

intro 0:07 
e|---------------------------------------------------------------------------| 
B|---------------------------------------------------------------------------| 
G|---8---<----8---<----------------------------------------------------------| 
D|---8---<----8---<----------------------------------------------------------| 
A|---6---<----6---<----------------------------------------------------------| 
E|---------------------------------------------------------------------------| 

verse 0:18 
e|---------------------------------------------------------------------------| 
B|----*-----*---*-----*---------*-------*------------------------------------| 
G|---8----11---8----11----*---11----*-11-------------------------------------| 
D|---8----11---8----11---9----11--11--11-------------------------------------| 
A|---6-----9---6-----9---9-----9--11---9-------------------------------------| 
E|-----------------------7---------9-----------------------------------------| 

pre chorus 0:29 
e|---------------------------------------------------------------------------| 
B|---------------------------------------------------------------------------| 
G|---------------------------------------------------------------------------| 
D|---8-x-8-x-8-x-------------------------------------------------------------| 
A|---8-x-8-x-8-x-------------------------------------------------------------| 
E|---6-x-6-x-6-x-------------------------------------------------------------| 

chorus 0:34 
e|---------------------------------------------------------------------------| 
B|---*----*-------------M--------*----*--------------------------------------| 
G|--8---11-----*--M--M--6--M----8---11----*----------------------------------| 
D|--8---11---11---6--4--6--8----8---11--11---8-------------------------------| 
A|--6----9---11---6--4--4--8----6----9--11---8-------------------------------| 
E|------------9---4--2-----6-------------9---6-------------------------------| 

verse 0:45 0:56 
e|---------------------------------------------------------------------------| 
B|----*---*-------*----------------------------------------------------------| 
G|---8--11---*--11--------------------8--------------------------------------| 
D|---8--11--9---11--------------------8---------(-8-6------)-----------------| 
A|---6---9--9----9--------------------6---------(-----9-8-6)-----------------| 
E|----------7----------------------------------------------------------------|
Tap to rate this tab
 
# A B C D E F G H I J K L M N O P Q R S T U V W X Y Z