Song name
# A B C D E F G H I J K L M N O P Q R S T U V W X Y Z

Anti-flag - What You Dont Know tab

-------------------------------------------------------------------------------
		   What You Don't Know - Anti-flag
-------------------------------------------------------------------------------
Tabbed by: Andres "silvadolla" Ali
Email: andres.ali@gmail.com

Tuning: EADGBE (STANDARD)

Hi. This is the tab of the song straight through, enjoy.

Intro x2:

e|-------4-4-4----2-2-2------------------------------------------------------|
B|-2-2-2--------5-------4-4-4--0-0-------------------------------------------|
G|---------------------------------------------------------------------------|
D|---------------------------------------------------------------------------|
A|---------------------------------------------------------------------------|
E|---------------------------------------------------------------------------|

e|-------4-4-4----2-2-2---------7-7------------------------------------------|
B|-2-2-2--------5-------4-4-4------------------------------------------------|
G|---------------------------------------------------------------------------|
D|---------------------------------------------------------------------------|
A|---------------------------------------------------------------------------|
E|---------------------------------------------------------------------------|

Verse x4:
e|---------------------------------------------------------------------------|
B|---------------------------------------------------------------------------|
G|--6-6-6-6-6-6-6-6--6-6-6-6-6-6-6-6-----------------------------------------|
D|--6-6-6-6-6-6-6-6--6-6-6-6-6-6-6-6--7-7-7-7-7-7-7-7---9-9-9-9-9-9-9-9------|
A|--4-4-4-4-4-4-4-4--4-4-4-4-4-4-4-4--7-7-7-7-7-7-7-7---9-9-9-9-9-9-9-9------|
E|------------------------------------5-5-5-5-5-5-5-5---7-7-7-7-7-7-7-7------|

Chorus x4:
e|---------------------------------------------------------------------------|
B|---------------------------------------------------------------------------|
G|--6-6-6-6-6-6-6-6--4-4-4-4-4-4-4-4--2-2-2-2-2-2-2-2---4-4-4-4-4-4-4-4------|
D|--6-6-6-6-6-6-6-6--4-4-4-4-4-4-4-4--2-2-2-2-2-2-2-2---4-4-4-4-4-4-4-4------|
A|--4-4-4-4-4-4-4-4--2-2-2-2-2-2-2-2--0-0-0-0-0-0-0-0---2-2-2-2-2-2-2-2------|
E|---------------------------------------------------------------------------|


Verse x4:
e|---------------------------------------------------------------------------|
B|---------------------------------------------------------------------------|
G|--6-6-6-6-6-6-6-6--6-6-6-6-6-6-6-6-----------------------------------------|
D|--6-6-6-6-6-6-6-6--6-6-6-6-6-6-6-6--7-7-7-7-7-7-7-7---9-9-9-9-9-9-9-9------|
A|--4-4-4-4-4-4-4-4--4-4-4-4-4-4-4-4--7-7-7-7-7-7-7-7---9-9-9-9-9-9-9-9------|
E|------------------------------------5-5-5-5-5-5-5-5---7-7-7-7-7-7-7-7------|

Chorus x4:
e|---------------------------------------------------------------------------|
B|---------------------------------------------------------------------------|
G|--6-6-6-6-6-6-6-6--4-4-4-4-4-4-4-4--2-2-2-2-2-2-2-2---4-4-4-4-4-4-4-4------|
D|--6-6-6-6-6-6-6-6--4-4-4-4-4-4-4-4--2-2-2-2-2-2-2-2---4-4-4-4-4-4-4-4------|
A|--4-4-4-4-4-4-4-4--2-2-2-2-2-2-2-2--0-0-0-0-0-0-0-0---2-2-2-2-2-2-2-2------|
E|---------------------------------------------------------------------------|

Bridge x3:

e|-------------------9-9-9--4-4-4--9-9-9--4-4-4------------------------------|
B|---------------------------------------------------------------------------|
G|--2-2-2-2-2-2-2-2----------------------------------------------------------|
D|--2-2-2-2-2-2-2-2----------------------------------------------------------|
A|--0-0-0-0-0-0-0-0----------------------------------------------------------|
E|---------------------------------------------------------------------------|
After third time strum A5 powerchord

Chorus x4:
e|---------------------------------------------------------------------------|
B|---------------------------------------------------------------------------|
G|--6-6-6-6-6-6-6-6--4-4-4-4-4-4-4-4--2-2-2-2-2-2-2-2---4-4-4-4-4-4-4-4------|
D|--6-6-6-6-6-6-6-6--4-4-4-4-4-4-4-4--2-2-2-2-2-2-2-2---4-4-4-4-4-4-4-4------|
A|--4-4-4-4-4-4-4-4--2-2-2-2-2-2-2-2--0-0-0-0-0-0-0-0---2-2-2-2-2-2-2-2------|
E|---------------------------------------------------------------------------|

Outro x6:
e|-------4-4-4----2-2-2------------------------------------------------------|
B|-2-2-2--------5-------4-4-4--0-0-------------------------------------------|
G|---------------------------------------------------------------------------|
D|---------------------------------------------------------------------------|
A|---------------------------------------------------------------------------|
E|---------------------------------------------------------------------------|

e|-------4-4-4----2-2-2---------7-7------------------------------------------|
B|-2-2-2--------5-------4-4-4------------------------------------------------|
G|---------------------------------------------------------------------------|
D|---------------------------------------------------------------------------|
A|---------------------------------------------------------------------------|
E|---------------------------------------------------------------------------|

End on C#5

Fine.

Hope you enjoyed this tab, it's relatively simple, but it's a nice tune. Please message 
if you find any errors
in this tab, or would like to message me for whatever reason at andres.ali@gmail.com. Thanks!

| /  slide up
| \  slide down
| h  hammer-on
| p  pull-off
| ~  vibrato
| +  harmonic
| x  Mute note
===============================================================================
Tap to rate this tab
 
# A B C D E F G H I J K L M N O P Q R S T U V W X Y Z