Song name
# A B C D E F G H I J K L M N O P Q R S T U V W X Y Z

Anti-flag - Their System Doesnt Work For You tab

Help us improve GuitareTab! Take a short survey!
Album: Their System Doesnt Work For You
Artist: Anti-Flag
Song: The System Doesnt Work For You
Tabbed by: JustnHav

Intro
1---------------------------|
2---------------------------|
3---------------------------| play alot of times
4---8--8--8-----------------|
5---6--6--6--then palm mute-|
6---------------------------|

Verse(the whole song is these chords)
1-----------------
2-----------------
3-----------------
4---8--4--6--8--6-
5---6--2--4--6--4-
6-----------------

Chorus
1--------------
2--------------
3--------------
4---8--4--6----
5---6--2--4--8-
6------------6-

Solo  ^=bend
1---11 alot-----------------------
2------------16----16-------------
3---------------15----15-15-15-15-
4---------------------------------
5---------------------------------
6---------------------------------

1-------6---6---6---6----------------------------------
2-----4---4---4---3---4--4--9-9-9-11-11-11-12-12-12-14-
3---6--------------------4-----------------------------
4------------------------^-----------------------------
5------------------------------------------------------
6------------------------------------------------------
Related for Their System Doesnt Work For You tab