Song name
# A B C D E F G H I J K L M N O P Q R S T U V W X Y Z

Anti-flag - Mumias Song tab

Help us improve GuitareTab! Take a short survey!
Song tabbed by MathieupM13 except the solo tabbed by DarkSilhoette13


By the way you should alternate palm mute all the palm muting thingies to get it right 
and I think that's how Justin and Chris play it

Verse 1
e|---------------------------|
B|---------------------------|
G|---------------------------|
D|-8--------44444-66666------| X3
A|-8--------44444-66666------|
E|-6--------22222-44444------|

e|--------------------------------------------------|
B|--------------------------------------------------|
G|--------------------------------------------------|
D|---------------44444444-66666666------------------|
A|-888888888888--44444444-66666666------------------|
E|-666666666666--22222222-44444444------------------|
PM ............


Chorus
e|----------------------------------------------|
B|----------------------------------------------|
G|--------666666--------------------------------|
D|-888888-666666-666666-444444------------------|
A|-888888-444444-666666-444444------------------|
E|-666666--------444444-222222------------------|       PLAY CHORUS TWICE

e|--------------------------------------------------|
B|--------------------------------------------------|
G|--------666666------------------------------------|
D|-888888-666666------------------------------------|
A|-888888-444444--44-4-44-4--66-6-66-6--------------|
E|-666666---------22-2-22-2--44-4-44-4--------------|
PM                ..   ..    ..   ..


Verse 2
e|---------------------------|
B|---------------------------|
G|---------------------------|
D|-8--------44444-66666------| X2
A|-8--------44444-66666------|
E|-6--------22222-44444------|

e|--------------------------------------------------|
B|--------------------------------------------------|
G|--------------------------------------------------|
D|------88-------88--444444-666666------------------|
A|-8888-88--8888-88--444444-666666------------------|
E|-6666-66--6666-66--222222-444444------------------|
PM ....     ....

e|--------------------------------------------------|
B|--------------------------------------------------|
G|--------------------------------------------------|
D|---------------44444444-66666666------------------|
A|-888888888888--44444444-66666666------------------|
E|-666666666666--22222222-44444444------------------|
PM ............


Chorus
e|----------------------------------------------|
B|----------------------------------------------|
G|--------666666--------------------------------|
D|-888888-666666-666666-444444------------------|
A|-888888-444444-666666-444444------------------|
E|-666666--------444444-222222------------------|       PLAY CHORUS TWICE

e|--------------------------------------------------|
B|--------------------------------------------------|
G|--------666666------------------------------------|
D|-888888-666666------------------------------------|
A|-888888-444444--44-4-44-4--66-6-66-6--------------|
E|-666666---------22-2-22-2--44-4-44-4--------------|
PM                ..   ..    ..   ..


Bridge
e|------------|
B|------------|
G|---------6--|
D|-8-------6--|
A|-8-------4--|
E|-6----------|

e|------------|
B|------------|
G|------------|
D|-6------4---|
A|-6------4---|
E|-4------2---|

e|------------|
B|------------|
G|---------6--|
D|-6/8-----6--|
A|-6/8-----4--|
E|-4/6--------|

e|------------|
B|------------|
G|------------|
D|-4------6---|
A|-4------6---|
E|-2------4---|

Solo
e|---------------------------------------------|
B|--6^-6^-6^-6^-6^-6^-6^-6^-6^-6^-6^-4-2~~~----|
G|---------------------------------------------|
D|---------------------------------------------|
A|---------------------------------------------|
E|---------------------------------------------|

e|-4--2--1----------2--1---------1--4-----|
B|----------4--2----------4~~-------------|
G|----------------------------------------|
D|----------------------------------------|
A|----------------------------------------|
E|----------------------------------------|

e|--6-9-----6-9-----6-9-----6-9-------|--9--11-11---9-8--|
B|------6-9-----6-9-----6-9-----6-9---|------------------|
G|------------------------------------|------------------|
D|------------------------------------|------------------|
A|------------------------------------|------------------|
E|------------------------------------|------------------|

e|--6-6-6-6-6-6-6-6-6-6-6-6-6-6-6-6------|
B|--6-6-6-6-6-6-6-6-6-6-6-6-6-6-6-6------|
G|---------------------------------------|
D|---------------------------------------|
A|---------------------------------------|
E|---------------------------------------|

e|------------6------------------|
B|----6-----------6--------------|
G|--------6-----------6----------|
D|------------------------8------|
A|-------------------------------|
E|-------------------------------|

Bridge
e|----------------------------|
B|----------------------------|
G|----------------------------|
D|-8--8--8--8--4--4--6--6-----| X3
A|-8--8--8--8--4--4--6--6-----|
E|-6--6--6--6--2--2--4--4-----|

e|-----------------------------------|
B|-----------------------------------|
G|-----------------------------------|
D|-8--8--8--8------------------------|
A|-8--8--8--8---4444444-6666666------|
E|-6--6--6--6---2222222-4444444------|
PM              ....... .......


Outro Chorus

e|-------------------------------|
B|-------------------------------|
G|-------------------------------|
D|-88888888888-444444-666666-----|  X3
A|-88888888888-444444-666666-----|
E|-66666666666-222222-444444-----|

e|--------------------------------------------|
B|--------------------------------------------|
G|--------------------------------------------|
D|-8888888888---------------------------------|
A|-8888888888-44-4-44-4--66-6--66-6-----------|
E|-6666666666-22-2-22-2--44-4--44-4-----------|
Pm            ..   ..    ..    ..

e|-------------------------|
B|-------------------------|
G|-------------------------|
D|-------------------------|
A|-44-4-44-4--66-6-66-6----|
E|-22-2-22-2--44-4-44-4----|
Pm ..   ..    ..   ..

e|--------------------------|
B|--------------------------|
G|--------------------------|
D|-----------------------8--|
A|-44-4-44-4--66-6-66-6--8--|
E|-22-2-22-2--44-4-44-4--6--|
Pm ..   ..    ..   ..

e|------|
B|------|
G|------|
D|-8----|
A|-8----|
E|-6----|

PM = Palm Muting
 / = Slide
Related for Mumias Song tab