Song name
# A B C D E F G H I J K L M N O P Q R S T U V W X Y Z

Anti-flag - Safe Tonight tab

Anti-Flag
Safe Tonight
Tuning: Half step down (Eb)
Tabbed by: unwrittenransom
Email: mkopera08@mtmercy.org

Rhythm Guitar

^  =upstroke
.. =palm mute


Note:I've included the strumming. Basically, for the intro/chorus, it's alternating: 
down down up down  with down down up up down up. For the verse, each power chord is hit 
then palm muted until it changes.
Don't worry too much about knowing which lyrics go along with the bridge if you're 
along with the album. As long as your strumming is right, there should be no problem. Where I 
put lyrics is where the chords go along with the words.

Intro:
---------------------------------------------------------------------------------|
---------------------------------------------------------------------------------|
9-9-9-9-9------------------------------------------------------------------------|
9-9-9-9-9-10-10-10-10-10-10-12-12-12-12-12-7-7-7-7-7-7---------------------------|  x4
7-7-7-7-7-10-10-10-10-10-10-12-12-12-12-12-7-7-7-7-7-7---------------------------|
---------------8---8---8---8--8---8-10-10-10-10-10-5-5-5-5-5-5-------------------|
         ^               ^   ^       ^                 ^           -^ ^

Verse:
--------------------------------------------------------------------------------|
--------------------------------------------------------------------------------|
9-9-9-9-9-9-9-------------------------------------------------------------------|
9-9-9-9-9-9-9-10-10-10-10-10-10-10-12-12-12-12-12-12-12-7-7-7-7-7-7-------------|  x4
7-7-7-7-7-7-7-10-10-10-10-10-10-10-12-12-12-12-12-12-12-7-7-7-7-7-7-------------|
---------------------8---8---8---8--8---8---8-10-10-10-10-10-10-10-5-5-5-5-5-5--|
   ................      .........................       .........................    ............

Chorus:
---------------------------------------------------------------------------------|
---------------------------------------------------------------------------------|
9-9-9-9-9------------------------------------------------------------------------|
9-9-9-9-9-10-10-10-10-10-10-12-12-12-12-12-7-7-7-7-7-7---------------------------|  x4
7-7-7-7-7-10-10-10-10-10-10-12-12-12-12-12-7-7-7-7-7-7---------------------------|
---------------8---8---8---8--8---8-10-10-10-10-10-5-5-5-5-5-5-------------------|
         ^               ^   ^       ^                 ^           -^ ^

Verse:
--------------------------------------------------------------------------------|
--------------------------------------------------------------------------------|
9-9-9-9-9-9-9-------------------------------------------------------------------|
9-9-9-9-9-9-9-10-10-10-10-10-10-10-12-12-12-12-12-12-12-7-7-7-7-7-7-------------|  x4
7-7-7-7-7-7-7-10-10-10-10-10-10-10-12-12-12-12-12-12-12-7-7-7-7-7-7-------------|
---------------------8---8---8---8--8---8---8-10-10-10-10-10-10-10-5-5-5-5-5-5--|
   ................      .........................       .........................    ............

Chorus:
---------------------------------------------------------------------------------|
---------------------------------------------------------------------------------|
9-9-9-9-9------------------------------------------------------------------------|
9-9-9-9-9-10-10-10-10-10-10-12-12-12-12-12-7-7-7-7-7-7---------------------------|  x4
7-7-7-7-7-10-10-10-10-10-10-12-12-12-12-12-7-7-7-7-7-7---------------------------|
---------------8---8---8---8--8---8-10-10-10-10-10-5-5-5-5-5-5-------------------|
         ^               ^   ^       ^                 ^           -^ ^

Bridge:
------------------------------------------------------------------------------------|
------------------------------------------------------------------------------------|
---------------------------------------------------9-9-9-9-9-9-9-9-9-9-9------------|
10-10-10-10-10-10-10-10-10-10-10--9-9-9-9-9-9-9-9-9-9-9-----------------------------| x2
10-10-10-10-10-10-10-10-10-10-10--7-7-7-7-7-7-7-7-7-7-7-----------------------------|
--8--8---8---8---8--8---8---8---8---8--8--------------------------------------------|
               ^                 ^   ^        ^           ^          ^ ^     ^

------------------------------------------------------------------------------------|
------------------------------------------------------------------------------------|
7-7-7-7-7---------------------------------------------------------------------------|
7-7-7-7-7-10-10-10-10-10-9-9-9-9-9-9-9-9-9-9----------------------------------------|
5-5-5-5-5-10-10-10-10-10-9-9-9-9-9-9-9-9-9-9----------------------------------------|
---------------8---8---8---8--8--7-7-7-7-7-7-7-7-7-7--------------------------------|
         ^                   ^               ^            ^


-------------------------------------------------------------------------------|
-------------------------------------------------------------------------------|
7-7-7-7-7----------------------------------------------------------------------|
7-7-7-7-7-10-10-10-10-10-9-9-9-9-9-9-9-9---------------------------------------|
5-5-5-5-5-10-10-10-10-10-9-9-9-9-9-9-9-9---------------------------------------|
---------------8---8---8---8--8--7-7-7-7-7-7-7-7-------------------------------|
         ^                   ^               ^

--------------------------------------------------------|
--------------------------------------------------------|
--------------------------------------------------------|
---9-9-9----9-9-9---9-9-9----9-9-9--------7-------------|
---9-9-9----9-9-9---9-9-9----9-9-9--------7-------------|
---7-7-7----7-7-7---7-7-7----7-7-7--------5-------------|
   ^    ^     ^    ^    ^    ^    ^    ^
wanna be  wanna be   wanna be   wanna be  with you

Solo: (Lead Guitar)

Chorus:
---------------------------------------------------------------------------------|
---------------------------------------------------------------------------------|
9-9-9-9-9------------------------------------------------------------------------|
9-9-9-9-9-10-10-10-10-10-10-12-12-12-12-12-7-7-7-7-7-7---------------------------|  x4
7-7-7-7-7-10-10-10-10-10-10-12-12-12-12-12-7-7-7-7-7-7---------------------------|
---------------8---8---8---8--8---8-10-10-10-10-10-5-5-5-5-5-5-------------------|
         ^               ^   ^       ^                 ^           -^ ^
Tap to rate this tab
 
# A B C D E F G H I J K L M N O P Q R S T U V W X Y Z