Guitaretab - guitar tabs
Song name
# A B C D E F G H I J K L M N O P Q R S T U V W X Y Z

Anti-flag - Angry Young And Poor tab

---------------------------------------------------------------------------------------
			     Angry, Young and Poor  Anti-Flag
---------------------------------------------------------------------------------------
Tabbed by:Mez

Tuning:EADGBe

BASS INTRO:
G|---------------------------------------------------------11-11-9-9-8-8-6-6-----------|
D|---------------------------------11-11-11-11-11-11-11-11-----------------------------|
A|-------------------------------------------------------------------------------------|
E|-9-9-9-9-9-9-9-9-9-9-9-9-9-9-9-9-----------------------------------------------------|

INTRO:
 Gtr 1
e|-------------------------------------------------------------------------------------|
B|-------------------------------------------------------------------------------------|
G|--------------2-2------4-4----------------------------------------2-2------4-4-------|
D|--------------2-22-222-4-44-444--46666666466646664666666646664666-2-22-222-4-44-444--|
A|--Pickslide---0-02-222-2-24-444--46666666466646664666666646664666-0-02-222-2-24-444--|
E|-----------------0-000----2-222--44444444444444444444444444444444----0-000----2-222--|

Prt 2
Gtr 1
e|------------------------4--------------------------------------------4---------------|
B|----5-4--------5-4h5~-----7-5-4~---7-5-4h5~------5-4--------5-4h5~-----7-5-4---------|
G|--6-----4~---6---------------------------------6-----4~---6------------------4~~-----|
D|-------------------------------------------------------------------------------------|
A|-------------------------------------------------------------------------------------|
E|-------------------------------------------------------------------------------------|

Gtr 2
e|-------------------------------------------------------------------------------------|
B|-------------------------------------------------------------------------------------|
G|-6-6-6-6-6-6-6-6---------------------------------------------------------------------|
D|-6-6-6-6-6-6-6-6x 8 ----------------------------------------------------------------|
A|-4-4-4-4-4-4-4-4---------------------------------------------------------------------|
E|-------------------------------------------------------------------------------------|

VERSE 
Gtr 1 + 2
e|-------------------------------------------------------------------------------------|
B|-------------------------------------------------------------------------------------|
G|-6-6-6-6-6-6-6-6-6-6-6-6-6-6-6-6-2-2------4-4----------------------------------------|
D|-6-6-6-6-6-6-6-6-6-6-6-6-6-6-6-6-2-22-222-4-44-444- x 3 -----------------------------|
A|-4-4-4-4-4-4-4-4-4-4-4-4-4-4-4-4-0-02-222-2-24-444-----------------------------------|
E|------------------------------------0-000----2-222-----------------------------------|
PM . . . . . . . . . . . . . . . .

e|-------------------------------------------------------------------------------------|
B|-------------------------------------------------------------------------------------|
G|-6-6-6-6-6-6-6-6-6-6-6-6-6-6-6-6-6-6-6-6-6-6-6-6-6-6-6-6-6-6-6-6---------------------|
D|-6-6-6-6-6-6-6-6-6-6-6-6-6-6-6-6-6-6-6-6-6-6-6-6-6-6-6-6-6-6-6-6---------------------|
A|-4-4-4-4-4-4-4-4-4-4-4-4-4-4-4-4-4-4-4-4-4-4-4-4-4-4-4-4-4-4-4-4---------------------|
E|-------------------------------------------------------------------------------------|
PM . . . . . . . . . . . . . . . . . . . . . . . .

Chorus
Gtr 1
e|-------------------------------------------------------------------------------------|
B|-------------------------------------------------------------------------------------|
G|-6-6-6-6-6-6-6-6-2-2-2-2-2-2-2-2-----------------4-4-4-4-4-4-4-4---------------------|
D|-6-6-6-6-6-6-6-6-2-2-2-2-2-2-2-2-2-2-2-2-2-2-2-2-4-4-4-4-4-4-4-4---------------------|
A|-4-4-4-4-4-4-4-4-0-0-0-0-0-0-0-0-2-2-2-2-2-2-2-2-2-2-2-2-2-2-2-2---------------------|
E|---------------------------------0-0-0-0-0-0-0-0-------------------------------------|

Gtr 2
e|-------------------------------------------------------------------------------------|
B|-------------------------------------------------------------------------------------|
G|-6-6-6-6-6-6-4-6-6-6-6-6-6-6-4-6-6-6-6-6-6-6-4-6-6-6-6-6-6-6-4-6---------------------|
D|-------------------------------------------------------------------------------------|
A|-------------------------------------------------------------------------------------|
E|-------------------------------------------------------------------------------------|





Gtr 1
e|-------------------------------------------------------------------------------------|
B|-------------------------------------------------------------------------------------|
G|-6-6-6-6-6-6-6-6-2-2-2-2-2-2-2-2-----------------------------------------------------|
D|-6-6-6-6-6-6-6-6-2-2-2-2-2-2-2-2-----------------------------------------------------|
A|-4-4-4-4-4-4-4-4-0-0-0-0-0-0-0-0-----------------------------------------------------|
E|-------------------------------------------------------------------------------------|
[ Tab from: http://www.guitaretab.com/a/anti-flag/35801.html ]
Gtr 2
e|---------------------------------9-9-----9-9-----9-9-----9-9-------------------------|
B|-------------------------------------9-9-----9-9-----9-9-----9-9---------------------|
G|-6-6-6-6-6-6-4-6-6-6-6-6-6-6-4-6-----------------------------------------------------|
D|-------------------------------------------------------------------------------------|
A|-------------------------------------------------------------------------------------|
E|-------------------------------------------------------------------------------------|

e|-------------------------------------------------------------------------------------|
B|-------------------------------------------------------------------------------------|
G|-6-6-6-6-6-6-6-6-2-2-2-2-2-2-2-2-----------------4-4-4-4-4-4-4-4---------------------|
D|-6-6-6-6-6-6-6-6-2-2-2-2-2-2-2-2-2-2-2-2-2-2-2-2-4-4-4-4-4-4-4-4- x 2----------------|
A|-4-4-4-4-4-4-4-4-0-0-0-0-0-0-0-0-2-2-2-2-2-2-2-2-2-2-2-2-2-2-2-2---------------------|
E|---------------------------------0-0-0-0-0-0-0-0-------------------------------------|


VERSE

Chorus

Gtr 1 + 2
e|-------------------------------------------------------------------------------------|
B|-------------------------------------------------------------------------------------|
G|-6--------------2-2-2-2-2-2-2-2------------------4-4-4-4-4-4-4-4---------------------|
D|-6--------------2-2-2-2-2-2-2-2-2----------------4-4-4-4-4-4-4-4---------------------|
A|-4--------------0-0-0-0-0-0-0-0-2----------------2-2-2-2-2-2-2-2---------------------|
E|--------------------------------0----------------------------------------------------|

e|-------------------------------------------------------------------------------------|
B|-------------------------------------------------------------------------------------|
G|-6-6-6-6-6-6-6-6-2-2-2-2-2-2-2-2-----------------4-4-4-4-4-4-4-4---------------------|
D|-6-6-6-6-6-6-6-6-2-2-2-2-2-2-2-2-2-2-2-2-2-2-2-2-4-4-4-4-4-4-4-4---------------------|
A|-4-4-4-4-4-4-4-4-0-0-0-0-0-0-0-0-2-2-2-2-2-2-2-2-2-2-2-2-2-2-2-2---------------------|
E|---------------------------------0-0-0-0-0-0-0-0-------------------------------------|

INTERLUDE
Gtr1
e|-------------------------------------------------------------------------------------|
B|-------------------------------------------------------------------------------------|
G|-------------------------------------------------------------------------------------|
D|--4666666646664666466666664666466646666666466646664666666646664666-------------------|
A|--4666666646664666466666664666466646666666466646664666666646664666-------------------|
E|--4444444444444444444444444444444444444444444444444444444444444444-------------------|

Gtr 1 + 2
e|-------------------------------------------------------------------------------------|
B|-------------------------------------------------------------------------------------|
G|--------------2-2------4-4--------------2-2------4-4--------2-2---4------------------|
D|--------------2-22-222-4-44-444 x 2 ---2-22-222-4-44-444---2-22-24------------------|
A|--Pickslide---0-02-222-2-24-444---------0-02-222-2-24-444---0-02-22------------------|
E|-----------------0-000----2-222------------0-000----2-222------0-0-------------------|

e|-------------------------------------------------------------------------------------|
B|-------------------------------------------------------------------------------------|
G|-6-6-6-6-6-6-6-6-2-2-2-2-2-2-2-2-----------------4-4-4-4-4-4-4-4---------------------|
D|-6-6-6-6-6-6-6-6-2-2-2-2-2-2-2-2-2-2-2-2-2-2-2-2-4-4-4-4-4-4-4-4- x 2----------------|
A|-4-4-4-4-4-4-4-4-0-0-0-0-0-0-0-0-2-2-2-2-2-2-2-2-2-2-2-2-2-2-2-2---------------------|
E|---------------------------------0-0-0-0-0-0-0-0-------------------------------------|

e|-------------------------------------------------------------------------------------|
B|-------------------------------------------------------------------------------------|
G|-6--------------2-2-2-2-2-2-2-2------------------4-4-4-4-4-4-4-4---------------------|
D|-6--------------2-2-2-2-2-2-2-2-2----------------4-4-4-4-4-4-4-4---------------------|
A|-4--------------0-0-0-0-0-0-0-0-2----------------2-2-2-2-2-2-2-2---------------------|
E|--------------------------------0----------------------------------------------------|



e|-------------------------------------------------------------------------------------|
B|-------------------------------------------------------------------------------------|
G|-6-6-6-6-6-6-6-6-2-2-2-2-2-2-2-2-----------------4-4-4-4-4-4-4-4---------------------|
D|-6-6-6-6-6-6-6-6-2-2-2-2-2-2-2-2-2-2-2-2-2-2-2-2-4-4-4-4-4-4-4-4---------------------|
A|-4-4-4-4-4-4-4-4-0-0-0-0-0-0-0-0-2-2-2-2-2-2-2-2-2-2-2-2-2-2-2-2---------------------|
E|---------------------------------0-0-0-0-0-0-0-0-------------------------------------|

OUTRO:
e|-------------------------------------------------------------------------------------|
B|-------------------------------------------------------------------------------------|
G|--66666666---------11-9-8-6----------------------------------------------------------|
D|--66666666- x 8 ---x--x-x-x----------------------------------------------------------|
A|--44444444---------9--7-6-4----------------------------------------------------------|
E|-------------------------------------------------------------------------------------|


| /  slide up
| \  slide down
| h  hammer-on
| p  pull-off
| ~  vibrato
| +  harmonic
| x  Mute note
=======================================================================================

Related for Angry Young And Poor tab