Song name
# A B C D E F G H I J K L M N O P Q R S T U V W X Y Z

Anti-flag - Thats Youth tab

Tabbed by David Chen

This sounds right to me. Better that the other ones for this song anyway. It's actually
really simple to play.
It becomes quite apparent in what order the parts should be played.

. - palm mute

Riff 1/intro/verse
e|-----------------------------------------------------------------|
B|-----------------------------------------------------------------|
G|-----------------------------------------------------------------|
D|-----------------------------------------------------------------|
A|-9-9-9-9-9-9-8-8-------------9-9---------------------------------|
E|-----------------9-9-9-9-9-9-----4-4-4-4-4-4-6-6-7-7-7-7-7-7-4-4-|
   ...............................................................

Riff 2/chorus
e|-----------------------------------------------------------------|
B|-----------------------------------------------------------------|
G|11-11-11-10----------11------------------------------------------|
D|11-11-11-10-11-11-11-11--6-6-6-8-9-9-9-6-------------------------|
A|-9--9--9--8-11-11-11--9--6-6-6-8-9-9-9-6-------------------------|
E|-------------9--9--9-----4-4-4-6-7-7-7-4-------------------------|

Interlude pt. 1
e|-----------------------------------------------------------------|
B|-----------------------------------------------------------------|
G|-----------------------------------------------------------------|
D|-------------8-14------------------------------------------------|
A|-9-9-9-9-9-9--------------8-14-------------3-6---------8-14------|
E|------------------9-9-9-9------4-4-4-4-4-4-----7-7-7-7-----------|


Interlude pt. 2
e|-----------------------------------------------------------------------------|
B|-----------------------------------------------------------------------------|
G|--------------------10-16----------------------------------------------------|
D|-11-11-11-11-11-11---8-14--------------10-16--------------5-8----------10-16-|
A|--9--9--9--9--9--9-------11-11-11-11---8-14-6-6-6-6-6-6---3-6--9-9-9-9--8-14-|
E|--------------------------9--9--9--9-------4-4-4-4-4-4---------7-7-7-7-------|
Tap to rate this tab
# A B C D E F G H I J K L M N O P Q R S T U V W X Y Z