Song name
# A B C D E F G H I J K L M N O P Q R S T U V W X Y Z

Anti-flag - Id Tell You But tab

Artist: Anti-Flag
Song: I'd tell you but...
Album: For Blood and Empire
Tuning: Standard (EADGBe)

Tabbed by: Brandon C.

Okay guys, this is my second tab and I was just annoyed with the inaccurate, confusing 
and ridiculous tabs for this song, so I took it upon myself to tab it CORRECTLY myself. I 
say this is 100% accurate but your input means everything. Enjoy!

    Intro
|--------------------------------|    |--------------------------|
|-7-7-0-0-7-7-0-0-7-7-0-0-4-5-4-2|    |-5-5-4-4-0-2---5-5-4-4-0-2|
|--------------------------------|    |--------------------------|
|--------------------------------|(x1)|--------------------------|(x2)
|--------------------------------|    |--------------------------|
|--------------------------------|    |--------------------------|

|--------------------------|
|-5-5-4-4-0-2---5-5-4-4-5-5|
|--------------------------|(x1) Play all of this twice. Then end on this:
|--------------------------|
|--------------------------|
|--------------------------|

|--------------------------------|
|-7-7-0-0-7-7-0-0-7-7-0-0-4-5-4-2|
|--------------------------------|
|--------------------------------|(x1)
|--------------------------------|
|--------------------------------|

Verse
   {---------Palm mute---------}  {--------Palm mute------------|
|------------------------------|--------------------------------|
|------------------------------|--------------------------------|
|-6-6-6-6-6-6-6-6-6-6-6-6-6-6-6|-4-4-4-4-4-4-4-4-4-4-4-4-4-4-4--|
|-6-6-6-6-6-6-6-6-6-6-6-6-6-6-6|-4-4-4-4-4-4-4-4-4-4-4-4-4-4-4--|
|-4-4-4-4-4-4-4-4-4-4-4-4-4-4-4|-2-2-2-2-2-2-2-2-2-2-2-2-2-2-2--|
|------------------------------|--------------------------------|
    : : : : : : : : : : : : : :    : : : : : : : : : : : : : :
   {--------Palm mute----------}  {--------Palm mute------------|
|------------------------------|--------------------------------|
|------------------------------|--------------------------------|
|-2-2-2-2-2-2-2-2-2-2-2-2-2-2-2|-4-4-4-4-4-4-4-4-4-4-4-4-4-4-4--|
|-2-2-2-2-2-2-2-2-2-2-2-2-2-2-2|-4-4-4-4-4-4-4-4-4-4-4-4-4-4-4--|(x2)
|-0-0-0-0-0-0-0-0-0-0-0-0-0-0-0|-2-2-2-2-2-2-2-2-2-2-2-2-2-2-2--|
|------------------------------|--------------------------------|
    : : : : : : : : : : : : : :    : : : : : : : : : : : : : :

Pre-Chorus
   {-------Palm mute---------------------------------------|
|------------------------------|---------------------------|
|------------------------------|---------------------------|
|-2-2-2-2-2-2-2-2-2-2-2-2-2-6-6|-4-4-4-4-4-4-4-4-4--4-9/8|-|
|-2-2-2-2-2-2-2-2-2-2-2-2-2-6-6|-4-4-4-4-4-4-4-4-4--x-x/x|-|
|-0-0-0-0-0-0-0-0-0-0-0-0-0-4-4|-2-2-2-2-2-2-2-2-2--2-7/6|-|
|------------------------------|---------------------------|
    : : : : : : : : : : : : : :  : : : : : : : :

Chorus
|--------------------------|----------------------|
|--------------------------|----------------------|
|-6--6--6-6-6--------------|-2--2--2-2-2-4--4--9/8|
|-6--6--6-6-6-2--2-2--2-2-2|-2--2--2-2-2-4--x--x/x|
|-4--4--4-4-4-2--2-2--2-2-2|-0--0--0-0-0-4--2--7/6|
|-------------0--0-0--0-0-0|----------------------|
                 :    : :          : :
|--------------------------|---------------------------|
|--------------------------|---------------------------|
|-6--6--6-6-6--------------|-2--2--2-2-2--4---4--4--4--|
|-6--6--6-6-6-2--2-2--2-2-2|-2--2--2-2-2--4---4--4--4--|
|-4--4--4-4-4-2--2-2--2-2-2|-0--0--0-0-0--2---2--2--2--|
|-------------0--0-0--0-0-0|---------------------------|
                 :    : :          : :

Pre-Solo
|-------------------------|-------------------------|-----5-----5-----5-----5-|
|-------------------------|-----5-----5-----5-----5-|-------------------------|
|-----6-----6-----6-----6-|-------------------------|-2-2---2-2---2-2---2-2---|
|-------------------------|-2-2---2-2---2-2---2-2---|-------------------------|
|-4-4---4-4---4-4---4-4---|-------------------------|-------------------------|
|-------------------------|-------------------------|-------------------------|
  : :   : :   : :   : :     : :   : :   : :   : :     : :   : :   : :   : :

Solo
|-9b-9-9-9-9-9-9-9-9-9-|-----------------------------|
|-9b-9-9-9-9-9-9-9-9-9-|---9-----9-----9------9-----9|
|----------------------|-9-9--9--9--9--9---9--9--9--9|
|----------------------|-11---11---11-----11-----11--|
|----------------------|-----------------------------|
|----------------------|-----------------------------|

|----------------------------------|---------------------------12-|
|------9------9------9-------------|------------------------------|
|----------------------------------|--11b--11b--11--11b--11b------|
|-9-11---9-11---9-11----11b--9b-11b|------------------------------|
|----------------------------------|------------------------------|
|----------------------------------|------------------------------|

|-12-12---------------12-12-----------------|-0-0-14p12-0-0-14p12-0-0-14p12-|
|-------9-9-10-10-----------9-9-10-10-12-12-|-------------------------------|
|-----------------9-9-----------------------|-------------------------------|
|-------------------------------------------|-------------------------------|
|-------------------------------------------|-------------------------------|
|-------------------------------------------|-------------------------------|

|-0-0-14p12-|-7-7----------------------------------|----------------------|
|-----------|-----10-10-9-9-7-10-10-10-9-9-7-7-----|--7b--5b--4b--4b------|
|-----------|----------------------------------9-9-|--------------------6-|
|-----------|--------------------------------------|----------------------|
|-----------|--------------------------------------|----------------------|
|-----------|--------------------------------------|----------------------|

Bridge
|-------|-----------|
|-4-5---|-5-4-5---7-|
|-----6-|-----------|
|-------|-----------|
|-------|-----------|
|-------|-----------|

Chorus once more then...

Post chorus
|-------------------------|-------------------------|
|-------------------------|-----5-----5-----5-----5-|
|-----6-----6-----6-----6-|-------------------------|
|-------------------------|-2-2---2-2---2-2---2-2---|
|-4-4---4-4---4-4---4-4---|-------------------------|
|-------------------------|-------------------------|
  : :   : :   : :   : :     : :   : :   : :   : :
|-----5-----5-----5-----5-----------------------------|
|-------------------------|-----9-----9-----9-----9---|
|-2-2---2-2---2-2---2-2---|---------------------------|
|-------------------------|-6-6---6-6---6-6---6-6-----|
|-------------------------|---------------------------|
|-------------------------|---------------------------|
  : :   : :   : :   : :     : :   : :   : :   : :

Outro
|---------------------------------|      |---------------------------|
|-7-7-0-0-7-7-0-0-7-7-0-0-4-5-4-2-|      |-5-5-4-4-0-2---5-5-4-4-0-2-|
|---------------------------------|      |---------------------------|
|---------------------------------|(x1)  |---------------------------|(x2)
|---------------------------------|      |---------------------------|
|---------------------------------|      |---------------------------|

|---------------------------|-----------------------------------------------|
|-5-5-4-4-0-2---5-5-4-4-5-5-|-7-7-0-0-7-7-0-0-7-7-0-0-4-5-4-2--2--2--2--2-2-|
|---------------------------|-----------------------------------------------|
|---------------------------|-----------------------------------------------|
|---------------------------|-----------------------------------------------|
|---------------------------|-----------------------------------------------|


Key:
:-Palm mute
/-slide
p-pull off
b-bend


END
Tap to rate this tab
 
# A B C D E F G H I J K L M N O P Q R S T U V W X Y Z