Song name
# A B C D E F G H I J K L M N O P Q R S T U V W X Y Z

Anti-flag - Anthem For The New Millennium Generation tab

INTRO
e------------------|
B------------------|
G----6~------------|
D-8~-6~-4~---------|x2
A-8~-4~-4~---------|
E-6~----2~---------|

e-------------------------|
B-------------------------|
G-------------------------|
D-8~-8~-8~-666666666666---|
A-8~-8~-8~-666666666666---|
E-6~-6~-6~-444444444444---|
Pm:        .........

VERSE
e---------------------|
B---------------------|
G-6\1111111111111111--|
D-6\1111111111111111--|
A-4\9-9-9-9-9-9-9-9---|
E---------------------|

PRE-CHORUS
e----------------------------|
B----------------------------|
G------6666------------------|
D-4444-6666-88-66-4444-------|
A-4444-4444-88-66-4444-------|x2
E-2222------66-44-2222-------|

e----------------------------|
B----------------------------|
G----------------------------|
D-44444444444446666666666----|
A-44444444444446666666666----|
E-22222222222224444444444----|Pick slide
Pm..................

CHORUS
e--------------------------|
B--------------------------|
G------6666----------------|
D-8888-6666-44444444-------|
A-8888-4444-44444444-------|
E-6666------22222222-------|

e-------------------------------------|
B-------------------------------------|
G------6666-11111111-13-13-13-13------|
D-8888-6666-11111111-13-13-13-13------|
A-8888-4444-9-9-9-9--11-11-11-11------|
E-6666--------------------------------|


e---------------------------------------------------|
B---------------------------------------------------|
G------6666------6666------6666---------------------|
D-8888-6666-4444-6666-8888-6666-44444444-666666666--|
A-8888-4444-4444-4444-8888-4444-44444444-666666666--|
E-6666------2222------6666------22222222-444444444--|
Pm                              .............

INTROx2
e---------------|
B---------------|
G---------------|
D-444444666666--|
A-444444666666--|
E-222222444444--|
Pm.........

VERSE x2
PRE-CHORUS x2
CHORUS

SOLO
e|----------------------------------| <-
B|----------------------------------|   |
G|---------66666666-----------------|   |
D|-88888888666666664444444466666666-|   |
A|-88888888444444444444444466666666-|   |
E|-66666666--------2222222244444444-|   |
                                            | 2x
e-----------------------------------|   |
B-----------------------------------|   |
G------6666-11111111-13-13-13-13----|   |
D-8888-6666-11111111-13-13-13-13----|   |
A-8888-4444-9-9-9-9--11-11-11-11----|   |
E-6666------------------------------| <-

e|----------------------------------|
B|----------------------------------|
G|---------66666666-----------------|
D|-88888888666666664444444466666666-| x2
A|-88888888444444444444444466666666-|
E|-66666666--------2222222244444444-|   

e--------------------------------------|
B--------------------------------------|
G-------6666----6-8--------------------|
D-44-33-6666-66-6-8-xx88xx88xx88xx88---|
A-44-33-4444-66-4-6-xx88xx88xx88xx88---|x3 
E-22-11------44-----xx66xx66xx66xx66---|

e----------|
B----------|
G-------6~-|
D-44-33-6~-|
A-44-33-4~-|
E-22-11----|

FINAL CHORUS
e--------------------------|
B--------------------------|
G------6666----------------|
D-8888-6666-44444444-------|
A-8888-4444-44444444-------|
E-6666------22222222-------|

e-------------------------------------|
B-------------------------------------|
G------6666-11111111-13-13-13-13------|
D-8888-6666-11111111-13-13-13-13------|
A-8888-4444-9-9-9-9--11-11-11-11------|
E-6666--------------------------------|

e--------------------------|
B--------------------------|
G------6666----------------|
D-8888-6666-4444-6666------|
A-8888-4444-4444-6666------|
E-6666------2222-4444------|

e---------------------|
B---------------------|
G---------------------|
D-8888-6666-44444444--|
A-8888-6666-44444444--|
E-6666-4444-22222222--| 2x end on first F# third time

Or play

e----------------------------------|
B----------------------------------|
G-15151515131313131111111111111111-|
D-xxxxxxxxxxxxxxxxxxxxxxxxxxxxxxxx-|                4
A-13131313111111119 9 9 9 9 9 9 9 -|                4
E----------------------------------| and end on the 2
Tap to rate this tab
 
# A B C D E F G H I J K L M N O P Q R S T U V W X Y Z