Song name
# A B C D E F G H I J K L M N O P Q R S T U V W X Y Z

Anti-flag - Rank-n-file tab

-------------------------------------------------------------------------------
			Rank N File - Anti-Flag
-------------------------------------------------------------------------------
Tabbed by: Andres Ali
Email: andres.ali@gmail.com

Tuning: EADGBE (STANDARD)

I love this song, I had to tab it out. There are a couple parts with two guitars, if 
playing by yourself, play rhythm.

Intro:
e|---------------------------------------------------------------------------|
B|---------------------------------------------------------------------------|
G|---------------------------------------------------------------------------|
D|---8-8-8-8-8-8-8-8---8-8-8-8-8-8-8-8---5-5-5-5-5-5-5-5---5-5-5-5-5-5-5-5--3|
A|---6-6-6-6-6-6-6-6---6-6-6-6-6-6-6-6---3-3-3-3-3-3-3-3---3-3-3-3-3-3-3-3--1|
E|---------------------------------------------------------------------------|

Lead x2:
e|---------------------------------------------------------------------------|
B|-8---8----11---11-11/13-11---8---11---11-11/13-11-----8--11---11-11/13-11--|
G|---8---8-----8-------------8---8----8---------------8---8---8--------------|
D|---------------------------------------------------------------------------|
A|---------------------------------------------------------------------------|
E|---------------------------------------------------------------------------|

Rhythm
e|---------------------------------------------------------------------------|
B|---------------------------------------------------------------------------|
G|---------------------------------------------------------------------------|x2
D|-8-8-8-8-8-8-8-8---5-5-5-5-5-5-5-5----3-3-3-3-3-3-3-3--3-3-3-3-3-3-3-3-----|
A|-6-6-6-6-6-6-6-6---3-3-3-3-3-3-3-3----1-1-1-1-1-1-1-1--1-1-1-1-1-1-1-1-----|
E|---------------------------------------------------------------------------|


Verse:
e|---------------------------------------------------------------------------|
B|---------------------------------------------------------------------------|
G|---------------------------------------------------------------------------|
D|---8-8-8-8-8-8-8-8---8-8-8-8-8-8-8-8---5---3-------------------------------|
A|---6-6-6-6-6-6-6-6---6-6-6-6-6-6-6-6---3---1--6----------------------------|
E|----------------------------------------------4----------------------------|x2

e|---------------------------------------------------------------------------|
B|---------------------------------------------------------------------------|
G|---------------------------------------------------------------------------|
D|---5-----7--8--8--7---5----7-----8-8-8-8-8-8-8-8---8-8-8-8-8-8-8-8---------|
A|---3-----5--6--6--5---3----5-----6-6-6-6-6-6-6-6---6-6-6-6-6-6-6-6---------|
E|---------------------------------------------------------------------------|


Chorus:

e|-------------------------------------------------------------------------|
B|-------------------------------------------------------------------------|
G|-------------------------------------------------------------------------|
D|---8-8-8-8-8-8-8-8---8-8-8-8-8-8-8-8---5-5-5-5-5-5-5-5---5-5-5-5-5-5-5-5-|
A|---6-6-6-6-6-6-6-6---6-6-6-6-6-6-6-6---3-3-3-3-3-3-3-3---3-3-3-3-3-3-3-3-|
E|-------------------------------------------------------------------------|

e|---------------------------------------------------------------------------|
B|---------------------------------------------------------------------------|
G|---------------------------------------------------------------------------|
D|--3-3-3-3-3-3-3-3--3-3-3-3-3-3-3-3-----------------------------------------|
A|--1-1-1-1-1-1-1-1--1-1-1-1-1-1-1-1---6-6-6-6-6-6-6-6-6---6-6-6-6-6-6-6-6-6-|
E|-------------------------------------4-4-4-4-4-4-4-4-4---4-4-4-4-4-4-4-4-4-|

e|---------------------------------------------------------------------------|
B|---------------------------------------------------------------------------|
G|---------------------------------------------------------------------------|
D|---8-8-8-8-8-8-8-8---8-8-8-8-8-8-8-8---5-5-5-5-5-5-5-5---5-5-5-5-5-5-5-5--3|
A|---6-6-6-6-6-6-6-6---6-6-6-6-6-6-6-6---3-3-3-3-3-3-3-3---3-3-3-3-3-3-3-3--1|
E|---------------------------------------------------------------------------|

Then it\'s this part again with two guitars:

Lead x2:
e|---------------------------------------------------------------------------|
B|-8---8----11---11-11/13-11---8---11---11-11/13-11-----8--11---11-11/13-11--|
G|---8---8-----8-------------8---8----8---------------8---8---8--------------|
D|---------------------------------------------------------------------------|
A|---------------------------------------------------------------------------|
E|---------------------------------------------------------------------------|

Rhythm x2:
e|---------------------------------------------------------------------------|
B|---------------------------------------------------------------------------|
G|---------------------------------------------------------------------------|
D|-8-8-8-8-8-8-8-8---5-5-5-5-5-5-5-5----3-3-3-3-3-3-3-3--3-3-3-3-3-3-3-3-----|
A|-6-6-6-6-6-6-6-6---3-3-3-3-3-3-3-3----1-1-1-1-1-1-1-1--1-1-1-1-1-1-1-1-----|
E|---------------------------------------------------------------------------|

Verse:
e|---------------------------------------------------------------------------|
B|---------------------------------------------------------------------------|
G|---------------------------------------------------------------------------|
D|---8-8-8-8-8-8-8-8---8-8-8-8-8-8-8-8---5---3-------------------------------|x2
A|---6-6-6-6-6-6-6-6---6-6-6-6-6-6-6-6---3---1--6----------------------------|
E|----------------------------------------------4----------------------------|

e|---------------------------------------------------------------------------|
B|---------------------------------------------------------------------------|
G|---------------------------------------------------------------------------|
D|---5-----7--8--8--7---5----7-----8-8-8-8-8-8-8-8---8-8-8-8-8-8-8-8---------|
A|---3-----5--6--6--5---3----5-----6-6-6-6-6-6-6-6---6-6-6-6-6-6-6-6---------|
E|---------------------------------------------------------------------------|

Chorus:

e|-------------------------------------------------------------------------|
B|-------------------------------------------------------------------------|
G|-------------------------------------------------------------------------|
D|---8-8-8-8-8-8-8-8---8-8-8-8-8-8-8-8---5-5-5-5-5-5-5-5---5-5-5-5-5-5-5-5-|
A|---6-6-6-6-6-6-6-6---6-6-6-6-6-6-6-6---3-3-3-3-3-3-3-3---3-3-3-3-3-3-3-3-|
E|-------------------------------------------------------------------------|

e|---------------------------------------------------------------------------|
B|---------------------------------------------------------------------------|
G|---------------------------------------------------------------------------|
D|--3-3-3-3-3-3-3-3--3-3-3-3-3-3-3-3-----------------------------------------|
A|--1-1-1-1-1-1-1-1--1-1-1-1-1-1-1-1---6-6-6-6-6-6-6-6-6---6-6-6-6-6-6-6-6-6-|
E|-------------------------------------4-4-4-4-4-4-4-4-4---4-4-4-4-4-4-4-4-4-|

e|-------------------------------------------------------------------------|
B|-------------------------------------------------------------------------|
G|-------------------------------------------------------------------------|
D|---8-8-8-8-8-8-8-8---8-8-8-8-8-8-8-8---5-5-5-5-5-5-5-5---5-5-5-5-5-5-5-5-|
A|---6-6-6-6-6-6-6-6---6-6-6-6-6-6-6-6---3-3-3-3-3-3-3-3---3-3-3-3-3-3-3-3-|
E|-------------------------------------------------------------------------|

e|---------------------------------------------------------------------------|
B|---------------------------------------------------------------------------|
G|---------------------------------------------------------------------------|
D|--3-3-3-3-3-3-3-3--3-3-3-3-3-3-3-3-----------------------------------------|
A|--1-1-1-1-1-1-1-1--1-1-1-1-1-1-1-1---6-6-6-6-6-6-6-6-6---6-6-6-6-6-6-6-6-6-|
E|-------------------------------------4-4-4-4-4-4-4-4-4---4-4-4-4-4-4-4-4-4-|


Fill (This is the best I could come up with, it still sounds off, if you find something 
sounds better,
let me know):

e|---------------------------------------------------------------------------|
B|---------------------------------------------------------------------------|
G|-------8--8----------------------------------------------------------------|
D|-----8--8---8----3---------------8-8-8-8-8-8-8-8---3-----------1-----------|
A|----6------------1----1h3p1---1--6-6-6-6-6-6-6-6---1---1h3p1--1------------|
E|---------------------------3--------------------------------3--------------|

Chorus (palm-muted)
e|-------------------------------------------------------------------------|
B|-------------------------------------------------------------------------|
G|-------------------------------------------------------------------------|
D|---8-8-8-8-8-8-8-8---8-8-8-8-8-8-8-8---5-5-5-5-5-5-5-5---5-5-5-5-5-5-5-5-|
A|---6-6-6-6-6-6-6-6---6-6-6-6-6-6-6-6---3-3-3-3-3-3-3-3---3-3-3-3-3-3-3-3-|
E|-------------------------------------------------------------------------|

e|---------------------------------------------------------------------------|
B|---------------------------------------------------------------------------|
G|---------------------------------------------------------------------------|
D|--3-3-3-3-3-3-3-3--3-3-3-3-3-3-3-3-----------------------------------------|
A|--1-1-1-1-1-1-1-1--1-1-1-1-1-1-1-1---6-6-6-6-6-6-6-6-6---6-6-6-6-6-6-6-6-6-|
E|-------------------------------------4-4-4-4-4-4-4-4-4---4-4-4-4-4-4-4-4-4-|

e|---------------------------------------------------------------------------|
B|---------------------------------------------------------------------------|
G|---------------------------------------------------------------------------|
D|---8-8-8-8-8-8-8-8---8-8-8-8-8-8-8-8---5-5-5-5-5-5-5-5---5-5-5-5-5-5-5-5--3|
A|---6-6-6-6-6-6-6-6---6-6-6-6-6-6-6-6---3-3-3-3-3-3-3-3---3-3-3-3-3-3-3-3--1|
E|---------------------------------------------------------------------------|


Chorus:

e|-------------------------------------------------------------------------|
B|-------------------------------------------------------------------------|
G|-------------------------------------------------------------------------|
D|---8-8-8-8-8-8-8-8---8-8-8-8-8-8-8-8---5-5-5-5-5-5-5-5---5-5-5-5-5-5-5-5-|
A|---6-6-6-6-6-6-6-6---6-6-6-6-6-6-6-6---3-3-3-3-3-3-3-3---3-3-3-3-3-3-3-3-|
E|-------------------------------------------------------------------------|

e|---------------------------------------------------------------------------|
B|---------------------------------------------------------------------------|
G|---------------------------------------------------------------------------|
D|--3-3-3-3-3-3-3-3--3-3-3-3-3-3-3-3-----------------------------------------|
A|--1-1-1-1-1-1-1-1--1-1-1-1-1-1-1-1---6-6-6-6-6-6-6-6-6---6-6-6-6-6-6-6-6-6-|
E|-------------------------------------4-4-4-4-4-4-4-4-4---4-4-4-4-4-4-4-4-4-|

e|-------------------------------------------------------------------------|
B|-------------------------------------------------------------------------|
G|-------------------------------------------------------------------------|
D|---8-8-8-8-8-8-8-8---8-8-8-8-8-8-8-8---5-5-5-5-5-5-5-5---5-5-5-5-5-5-5-5-|
A|---6-6-6-6-6-6-6-6---6-6-6-6-6-6-6-6---3-3-3-3-3-3-3-3---3-3-3-3-3-3-3-3-|
E|-------------------------------------------------------------------------|

e|---------------------------------------------------------------------------|
B|---------------------------------------------------------------------------|
G|---------------------------------------------------------------------------|
D|--3-3-3-3-3-3-3-3--3-3-3-3-3-3-3-3-----------------------------------------|
A|--1-1-1-1-1-1-1-1--1-1-1-1-1-1-1-1---6-6-6-6-6-6-6-6-6---6-6-6-6-6-6-6-6-6-|
E|-------------------------------------4-4-4-4-4-4-4-4-4---4-4-4-4-4-4-4-4-4-|

End on D#5

That\'s it, this tab is pretty accurate, the fill might be a little off, other than that,
it was pretty flexible for me. Please email me with an comments/suggestions/corrections.
Thanks

Anti-Flag kicks ass!

| /  slide up
| \\  slide down
| h  hammer-on
| p  pull-off
| ~  vibrato
| +  harmonic
| x  Mute note
===============================================================================
Tap to rate this tab
# A B C D E F G H I J K L M N O P Q R S T U V W X Y Z