Song name
# A B C D E F G H I J K L M N O P Q R S T U V W X Y Z

Anti-flag - Kill The Rich tab

                          KILL THE RICH - Anti-Flag

Intro/Chorus

Kill Kill Kill
e|--------------------------------------------------------------------|
B|--------------------------------------------------------------------|
G|--------------------------------------------------------------------|
D|-2-x8--9-x8---10-x8---7-x8--------7/9~------------------------------|
A|-2-----9------10------7---------------------------------------------|
E|-0-----7-------8------5---------------------------------------------|

Verse:
"A billionare chatting with his friends...
e|--------------------------:-----------------------------------------|
B|--------------------------:-----------------------------------------|
G|--------------------------:-----------------------------------------|
D|-2-x8--9-x8---10-x8---7-x8:-2-x8--9-x8--10-x8--------------55---55--|
A|-2-----9------10------7---:-2-----9-----10------77----77------------|
E|-0-----7-------8------5---:-0-----7------8--------------------------|
P.M.................................................         ..

Bridge:
e|--------------------------------------------------------------------|
B|-------------12--12-------------------------------------------------|
G|------12~~~~-----13---------pick scrape-----------------------------|
D|--------------------------------------------------------------------|
A|--------------------------------------------------------------------|
E|--------------------------------------------------------------------|

Breakdown:
"They're gunna give you nothing. They want to take away the little they call something
e|--------------------------------------------------------------------|
B|--------------------------------------------------------------------|
G|--------------------------------------------------------------------|
D|-2-2----2-2-2-----2-2-2---9---10------7-----------------------------|
A|-2-2----2-2-2-----2-2-2---9---10------7-----------------------------|
E|-0-0----0-0-0-----0-0-0---7----8------5-----------------------------|
P.M       .....         

Intro
Verse
Chorus
Bridge
Verse
Chorus
Breakdown
Verse
Chorus
Tap to rate this tab
# A B C D E F G H I J K L M N O P Q R S T U V W X Y Z