Song name
# A B C D E F G H I J K L M N O P Q R S T U V W X Y Z

Anti-flag - Sold As Freedom tab

This is a VERY good song!!!

1/2 Step Down

Intro

eb-5-0-0-5-0-0-3-0-5-0-0-3-0-------------|
bb---------------------------------------|
gb---------------------------------------|
db---------------------------------------|
ab---------------------------------------|
eb---------------------------------------| x12


After x4 intro, 2nd guitar:

eb-----------------------------------------------------|
bb-----------------------------------------------------|
gb--------------5-5-5-------2-2-2-2-2-2-2-2-2-2-2-2----|
db--3-3-3-2-2-2-5-5-5-5-5-5-2-2-2-2-2-2-2-2-2-2-2-2----|
ab--3-3-3-2-2-2-3-3-3-5-5-5-0-0-0-0-0-0-0-0-0-0-0-0----|
eb--1-1-1-0-0-0-------3-3-3----------------------------| x2
                            x x   x x   x x   x x 

Verse 1

2nd Guitar

eb-----------------------------------------------------|
bb-----------------------------------------------------|
gb--------------5-5-5-------2-2-2-2-2-2-2-2-2-2-2-2----|
db--3-3-3-2-2-2-5-5-5-5-5-5-2-2-2-2-2-2-2-2-2-2-2-2----|
ab--3-3-3-2-2-2-3-3-3-5-5-5-0-0-0-0-0-0-0-0-0-0-0-0----|
eb--1-1-1-0-0-0-------3-3-3----------------------------| x4 (last time
    x x x x x x x x x x x x x x   x x   x x   x x         not palm muted)


2nd Guitar

eb-------------------------------------------------------------|
bb-------------------------------------------------------------|
gb--14-14-14-14-14-14-14-14-14-14-14-14-15-15-15-15-14-14-14---|
db--x--x--x--x--x--x--x--x--x--x--x--x--x--x--x--x--x--x--x----|
ab--12-12-12-12-12-12-12-12-12-12-12-12-13-13-13-13-12-12-12---|
eb-------------------------------------------------------------| x2

eb-----------------------------------------------|
bb-----------------------------------------------|
gb--14-14-14-12-12-12-10-10-10-12-12-12-9-9-9-9--|
db--x--x--x--x--x--x--x--x--x--x--x--x--x-x-x-x--|
ab--12-12-12-10-10-10-8--8--8--10-10-10-7-7-7-7--|
eb-----------------------------------------------| 

eb------------------------------------------------|
bb------------------------------------------------|
gb--10-10-10-9-9-9-12-12-12--17-17-17-14-14-14-14-|
db--x--x--x--x-x x-x--x--x---x--x--x--x--x--x--x--|
ab--8--8--8--7-7-7-10-10-10--15-15-15-12-12-12-12-|
eb------------------------------------------------| 

Chorus

eb------------------------------------------------------------|
bb------------------------------------------------------------|
gb--10-10-10-9-9-9-7-7-7-(9)(9 (9)--2-2-2-2-2-2-2-2-2-2-2-2---|
db--10-10-10-9-9-9-7-7-7-(9)(9)(9)--2-2-2-2-2-2-2-2-2-2-2-2---|
ab--8--8--8--7-7-7-5-5-5-(7)(7)(7)--0-0-0-0-0-0-0-0-0-0-0-0---|
eb-----------------------/////////----------------------------| x3
                  (Pickslide, or play notes)                
  

Guitar 2 fill in chorus

eb--5---5---5---5---5---|
bb--5---5---5---5---5---|
gb--7b9-7b9-7b9-7b9-7b9-|
db----------------------|
ab----------------------|
eb----------------------| at end of the 2nd time

Chorus Cont

eb-------------------------------------------------------------------|
bb-------------------------------------------------------------------|
gb--5-5-5-5-5-5-5-5-5-5-5-5-5-5-5-5-9-9-9-9-9-9-9-9-9-9-9-9-9-9-9-9--|
db--5-5-5-5-5-5-5-5-5-5-5-5-5-5-5-5-9-9-9-9-9-9-9-9-9-9-9-9-9-9-9-9--|
ab--3-3-3-3-3-3-3-3-3-3-3-3-3-3-3-3-7-7-7-7-7-7-7-7-7-7-7-7-7-7-7-7--|
eb-------------------------------------------------------------------| 


Verse 2

1st Guitar

eb-----------------------------------------------------|
bb-----------------------------------------------------|
gb--------------5-5-5-------2-2-2-2-2-2-2-2-2-2-2-2----|
db--3-3-3-2-2-2-5-5-5-5-5-5-2-2-2-2-2-2-2-2-2-2-2-2----|
ab--3-3-3-2-2-2-3-3-3-5-5-5-0-0-0-0-0-0-0-0-0-0-0-0----|
eb--1-1-1-0-0-0-------3-3-3----------------------------| x4 (last time
    x x x x x x x x x x x x x x   x x   x x   x x         not palm muted)


2nd Guitar

eb-------------------------------------------------------------|
bb-------------------------------------------------------------|
gb--14-14-14-14-14-14-14-14-14-14-14-14-15-15-15-15-14-14-14---|
db--x--x--x--x--x--x--x--x--x--x--x--x--x--x--x--x--x--x--x----|
ab--12-12-12-12-12-12-12-12-12-12-12-12-13-13-13-13-12-12-12---|
eb-------------------------------------------------------------| x2

eb-----------------------------------------------|
bb-----------------------------------------------|
gb--14-14-14-12-12-12-10-10-10-12-12-12-9-9-9-9--|
db--x--x--x--x--x--x--x--x--x--x--x--x--x-x-x-x--|
ab--12-12-12-10-10-10-8--8--8--10-10-10-7-7-7-7--|
eb-----------------------------------------------| 

eb------------------------------------------------|
bb------------------------------------------------|
gb--10-10-10-9-9-9-12-12-12--17-17-17-14-14-14-14-|
db--x--x--x--x-x x-x--x--x---x--x--x--x--x--x--x--|
ab--8--8--8--7-7-7-10-10-10--15-15-15-12-12-12-12-|
eb------------------------------------------------| 


Chorus

eb------------------------------------------------------------|
bb------------------------------------------------------------|
gb--10-10-10-9-9-9-7-7-7-(9)(9 (9)--2-2-2-2-2-2-2-2-2-2-2-2---|
db--10-10-10-9-9-9-7-7-7-(9)(9)(9)--2-2-2-2-2-2-2-2-2-2-2-2---|
ab--8--8--8--7-7-7-5-5-5-(7)(7)(7)--0-0-0-0-0-0-0-0-0-0-0-0---|
eb-----------------------/////////----------------------------| x3
                  (Pickslide, or play notes)                
  

Guitar 2 fill in chorus

eb--5---5---5---5---5---|
bb--5---5---5---5---5---|
gb--7b9-7b9-7b9-7b9-7b9-|
db----------------------|
ab----------------------|
eb----------------------| at end of the 2nd time

Chorus Cont

eb-------------------------------------------------------------------|
bb-------------------------------------------------------------------|
gb--5-5-5-5-5-5-5-5-5-5-5-5-5-5-5-5-9-9-9-9-9-9-9-9-9-9-9-9-9-9-9-9--|
db--5-5-5-5-5-5-5-5-5-5-5-5-5-5-5-5-9-9-9-9-9-9-9-9-9-9-9-9-9-9-9-9--|
ab--3-3-3-3-3-3-3-3-3-3-3-3-3-3-3-3-7-7-7-7-7-7-7-7-7-7-7-7-7-7-7-7--|
eb-------------------------------------------------------------------| 

Breakdown

eb-----------------------------------|
bb-----------------------------------|
gb-----------------2-----------------|
db-3-3-2---2-3-2---2-3-2---5-3-2-5---|
ab-3-----3-2-----3-0-----3-5---------|
eb-1-------0---------------3---------| x2 (On 2nd time let Gb chord 
                                   ring out instead of playing db-3-2-5)

Breakdown Cont

1st Guitar

eb--------------------------------------------------|
bb--------------------------------------------------|
gb--------------------------------------------------|
db--3--3--3-3-3-3-2-2-2-2-7--7--7-7-7-7-5-5-5-5-----|
ab--3--3--3-3-3-3-2-2-2-2-7--7--7-7-7-7-5-5-5-5-----|
eb--1--1--1-1-1-1-0-0-0-0-5--5--5-5-5-5-3-3-3-3-----| x2

2nd Guitar

eb----------------------------------------------------|
bb----------------------------------------------------|
gb--10--10--10-10-10-10-9-9-9-9-----------------------|
db--10--10--10-10-10-10-9-9-9-9-7--7--7-7-7-7-5-5-5-5-|
ab--8---8---8--8--8--8--7-7-7-7-7--7--7-7-7-7-5-5-5-5-|
eb------------------------------5--5--5-5-5-5-3-3-3-3-| x2


Then

eb--------------------------------------|
bb--------------------------------------|
gb--------------------------------------|
db--3-3-3-3-2-2-2-2-7-7-7-7-5-5-5-5-----|
ab--3-3-3-3-2-2-2-2-7-7-7-7-5-5-5-5-----|
eb--1-1-1-1-0-0-0-0-5-5-5-5-3-3-3-3-----|
    x x x x x x x x x x x x x x x x

eb--------------------------------------|
bb--------------------------------------|
gb--------------------------------------|
db--3-3-3-3-2-2-2-2-7-7-7-7-5-5-5-5-----|
ab--3-3-3-3-2-2-2-2-7-7-7-7-5-5-5-5-----|
eb--1-1-1-1-0-0-0-0-5-5-5-5-3-3-3-3-----|
    x x x x x x x x

Outro

1st Guitar

eb-5-0-0-5-0-0-3-0-5-0-0-3-0-------------|
bb---------------------------------------|
gb---------------------------------------|
db---------------------------------------|
ab---------------------------------------|
eb---------------------------------------| x14


2nd guitar:

eb-----------------------------------------------------|
bb-----------------------------------------------------|
gb--------------5-5-5-------2-2-2-2-2-2-2-2-2-2-2-2----|
db--3-3-3-2-2-2-5-5-5-5-5-5-2-2-2-2-2-2-2-2-2-2-2-2----|
ab--3-3-3-2-2-2-3-3-3-5-5-5-0-0-0-0-0-0-0-0-0-0-0-0----|
eb--1-1-1-0-0-0-------3-3-3----------------------------| x3
                            x x   x x   x x   x x 


eb-----------------------------------------------------|
bb-----------------------------------------------------|
gb--------------5-5-5-------2--------------------------|
db--3-3-3-2-2-2-5-5-5-5-5-5-2--------------------------|
ab--3-3-3-2-2-2-3-3-3-5-5-5-0--------------------------|
eb--1-1-1-0-0-0-------3-3-3----------------------------| 

(Last One)



                             


Tap to rate this tab
 
# A B C D E F G H I J K L M N O P Q R S T U V W X Y Z