Guitaretab - guitar tabs
Song name
# A B C D E F G H I J K L M N O P Q R S T U V W X Y Z

Anti-flag - Youd Do The Same tab

Artist: Anti-Flag
Song: You'd do the same
Album: Die for your government
By: Schteban, stefarends@hotmail.com, www.slums.tk
Any questions or comments, e-mail me.

Intro:
Intro-Lead Guitar
e|-----------------------------------------------------------------------|
B|-----------------------------------------------------------------------|
G|-11~~---------------11~~-----------------------Pickslide---------------|
D|-11~~---------------11~~--------------\\\\\\\\\\\\\\\\\\\\\\\\\\\\\\\\-|
A|-9~~~---------------9~~~--------------\\\\\\\\\\\\\\\\\\\\\\\\\\\\\\\\-|
E|--------------------------------------\\\\\\\\\\\\\\\\\\\\\\\\\\\\\\\\-|

e|-----------------------------------------------------------------------|
B|-----------------------------------------------------------------------|
G|-11-11-11-11-11-11-11-11-11-11-11-11-11-11-11-11-----------------------|
D|-11-11-11-11-11-11-11-11-11-11-11-11-11-11-11-11-----------------------|
A|-9--9--9--9--9--9--9--9--9--9--9--9--9--9--9-9------------------------|
E|-----------------------------------------------------------------------|

e|-----------------------------------------------------------------------|
B|-----------------------------------------------------------------------|
G|-----------------9-9-9-9-9-9-9-9---------------------------------------|
D|-9-9-9-9-9-9-9-9-9-9-9-9-9-9-9-9---------------------------------------|
A|-9-9-9-9-9-9-9-9-7-7-7-7-7-7-7-7---------------------------------------|
E|-7-7-7-7-7-7-7-7-------------------------------------------------------|

e|-----------------------------------------------------------------------|
B|-----------------------------------------------------------------------|
G|-11-11-11-11-11-11-11-11-11-11-11-11-11-11-11-11-----------------------|
D|-11-11-11-11-11-11-11-11-11-11-11-11-11-11-11-11-----------------------|
A|-9--9--9--9--9--9--9--9--9--9--9--9--9--9--9-9------------------------|
E|-----------------------------------------------------------------------|

e|-----------------------------------------------------------------------|
B|-----------------------------------------------------------------------|
G|-----------------9-9-9-9-9-9-9-9---------------------------------------|
D|-9-9-9-9-9-9-9-9-9-9-9-9-9-9-9-9---------------------------------------|
A|-9-9-9-9-9-9-9-9-7-7-7-7-7-7-7-7---------------------------------------|
E|-7-7-7-7-7-7-7-7-------------------------------------------------------|

Verse:
e|-----------------------------------------------------------------------|
B|-----------------------------------------------------------------------|
G|-11-11-11-11-11-11-11-11-11-11-11-11-11-11-11-11-----------------------|
D|-11-11-11-11-11-11-11-11-11-11-11-11-11-11-11-11-----------------------|
A|-9--9--9--9--9--9--9--9--9--9--9--9--9--9--9-9------------------------|
E|-----------------------------------------------------------------------|
Pm:   .  .  .  .  .  .  .  .  .  .  .  .  .  .  .
e|-----------------------------------------------------------------------|
B|-----------------------------------------------------------------------|
G|-----------------9-9-9-9-9-9-9-9---------------------------------------|
D|-9-9-9-9-9-9-9-9-9-9-9-9-9-9-9-9---------------------------------------|
A|-9-9-9-9-9-9-9-9-7-7-7-7-7-7-7-7---------------------------------------|
E|-7-7-7-7-7-7-7-7-------------------------------------------------------|
Pm:  . . . . . . .   . . . . . . .

e|-----------------------------------------------------------------------|
B|-----------------------------------------------------------------------|
G|-11-11-11-11-11-11-11-11-11-11-11-11-11-11-11-11-----------------------|
D|-11-11-11-11-11-11-11-11-11-11-11-11-11-11-11-11-----------------------|
A|-9--9--9--9--9--9--9--9--9--9--9--9--9--9--9-9------------------------|
E|-----------------------------------------------------------------------|
Pm:   .  .  .  .  .  .  .  .  .  .  .  .  .  .  .
e|-----------------------------------------------------------------------|
B|-----------------------------------------------------------------------|
G|-----------------9-9-9-9-9-9-9-9---------------------------------------|
D|-9-9-9-9-9-9-9-9-9-9-9-9-9-9-9-9---------------------------------------|
A|-9-9-9-9-9-9-9-9-7-7-7-7-7-7-7-7---------------------------------------|
E|-7-7-7-7-7-7-7-7-------------------------------------------------------|
Pm:  . . . . . . .   . . . . . . .

e|-----------------------------------------------------------------------|
B|-----------------------------------------------------------------------|
G|-11-11-11-11-11-11-11-11-11-11-11-11-11-11-11-11-----------------------|
D|-11-11-11-11-11-11-11-11-11-11-11-11-11-11-11-11-----------------------|
A|-9--9--9--9--9--9--9--9--9--9--9--9--9--9--9-9------------------------|
E|-----------------------------------------------------------------------|
Pm:   .  .  .  .  .  .  .  .  .  .  .  .  .  .  .
e|-----------------------------------------------------------------------|
B|-----------------------------------------------------------------------|
G|-----------------9-9-9-9-9-9-9-9---------------------------------------|
D|-9-9-9-9-9-9-9-9-9-9-9-9-9-9-9-9---------------------------------------|
A|-9-9-9-9-9-9-9-9-7-7-7-7-7-7-7-7---------------------------------------|
E|-7-7-7-7-7-7-7-7-------------------------------------------------------|
Pm:  . . . . . . .   . . . . . . .

e|-----------------------------------------------------------------------|
B|-----------------------------------------------------------------------|
G|-11-~~~~-------------------------------------------------pickslide-----|
D|-11-~~~~---------------------------9-~~-------------\\\\\\\\\\\\\\\\\\-|
A|-9--~~~~---------------------------9-~~-------------\\\\\\\\\\\\\\\\\\-|
E|-----------------------------------7-~~-------------\\\\\\\\\\\\\\\\\\-|

Chorus:
e|-----------------------------------------------------------------------|
B|-----------------------------------------------------------------------|
G|-11-11-11-11-11-11-11-11-11-11-11-11-11-11-11-11-----------------------|
D|-11-11-11-11-11-11-11-11-11-11-11-11-11-11-11-11-----------------------|
A|-9--9--9--9--9--9--9--9--9--9--9--9--9--9--9-9------------------------|
E|-----------------------------------------------------------------------|

e|-----------------------------------------------------------------------|
B|-----------------------------------------------------------------------|
G|-----------------9-9-9-9-9-9-9-9---------------------------------------|
D|-9-9-9-9-9-9-9-9-9-9-9-9-9-9-9-9---------------------------------------|
A|-9-9-9-9-9-9-9-9-7-7-7-7-7-7-7-7---------------------------------------|
E|-7-7-7-7-7-7-7-7-------------------------------------------------------|
X4
[ Tab from: http://www.guitaretab.com/a/anti-flag/50030.html ]
Interlude 1:
e|-----------------------------------------------------------------------|
B|-777777777777777-9-10-9-7-12-10-7---12p10p7 12p10p712p10p7-12p10p7----|
G|-----------------------------------------------------------------------|
D|-----------------------------------------------------------------------|
A|-----------------------------------------------------------------------|
E|-----------------------------------------------------------------------|

e|-----------------------------------------------------------------------|
B|-12b13-12b13-12b13-12b13-12b13-12b13-12b13~~---------------------------|
G|-----------------------------------------------------------------------|
D|-----------------------------------------------------------------------|
A|-----------------------------------------------------------------------|
E|-----------------------------------------------------------------------|

Verse:
e|-----------------------------------------------------------------------|
B|-----------------------------------------------------------------------|
G|-11-11-11-11-11-11-11-11-11-11-11-11-11-11-11-11-----------------------|
D|-11-11-11-11-11-11-11-11-11-11-11-11-11-11-11-11-----------------------|
A|-9--9--9--9--9--9--9--9--9--9--9--9--9--9--9-9------------------------|
E|-----------------------------------------------------------------------|
Pm:   .  .  .  .  .  .  .  .  .  .  .  .  .  .  .
e|-----------------------------------------------------------------------|
B|-----------------------------------------------------------------------|
G|-----------------9-9-9-9-9-9-9-9---------------------------------------|
D|-9-9-9-9-9-9-9-9-9-9-9-9-9-9-9-9---------------------------------------|
A|-9-9-9-9-9-9-9-9-7-7-7-7-7-7-7-7---------------------------------------|
E|-7-7-7-7-7-7-7-7-------------------------------------------------------|
Pm:  . . . . . . .   . . . . . . .

e|-----------------------------------------------------------------------|
B|-----------------------------------------------------------------------|
G|-11-11-11-11-11-11-11-11-11-11-11-11-11-11-11-11-----------------------|
D|-11-11-11-11-11-11-11-11-11-11-11-11-11-11-11-11-----------------------|
A|-9--9--9--9--9--9--9--9--9--9--9--9--9--9--9-9------------------------|
E|-----------------------------------------------------------------------|
Pm:   .  .  .  .  .  .  .  .  .  .  .  .  .  .  .
e|-----------------------------------------------------------------------|
B|-----------------------------------------------------------------------|
G|-----------------9-9-9-9-9-9-9-9---------------------------------------|
D|-9-9-9-9-9-9-9-9-9-9-9-9-9-9-9-9---------------------------------------|
A|-9-9-9-9-9-9-9-9-7-7-7-7-7-7-7-7---------------------------------------|
E|-7-7-7-7-7-7-7-7-------------------------------------------------------|
Pm:  . . . . . . .   . . . . . . .

e|-----------------------------------------------------------------------|
B|-----------------------------------------------------------------------|
G|-11-11-11-11-11-11-11-11-11-11-11-11-11-11-11-11-----------------------|
D|-11-11-11-11-11-11-11-11-11-11-11-11-11-11-11-11-----------------------|
A|-9--9--9--9--9--9--9--9--9--9--9--9--9--9--9-9------------------------|
E|-----------------------------------------------------------------------|
Pm:   .  .  .  .  .  .  .  .  .  .  .  .  .  .  .
e|-----------------------------------------------------------------------|
B|-----------------------------------------------------------------------|
G|-----------------9-9-9-9-9-9-9-9---------------------------------------|
D|-9-9-9-9-9-9-9-9-9-9-9-9-9-9-9-9---------------------------------------|
A|-9-9-9-9-9-9-9-9-7-7-7-7-7-7-7-7---------------------------------------|
E|-7-7-7-7-7-7-7-7-------------------------------------------------------|
Pm:  . . . . . . .   . . . . . . .

e|-----------------------------------------------------------------------|
B|-----------------------------------------------------------------------|
G|-11-~~~~-------------------------------------------------pickslide-----|
D|-11-~~~~---------------------------9-~~-------------\\\\\\\\\\\\\\\\\\-|
A|-9--~~~~---------------------------9-~~-------------\\\\\\\\\\\\\\\\\\-|
E|-----------------------------------7-~~-------------\\\\\\\\\\\\\\\\\\-|

Chorus:
e|-----------------------------------------------------------------------|
B|-----------------------------------------------------------------------|
G|-11-11-11-11-11-11-11-11-11-11-11-11-11-11-11-11-----------------------|
D|-11-11-11-11-11-11-11-11-11-11-11-11-11-11-11-11-----------------------|
A|-9--9--9--9--9--9--9--9--9--9--9--9--9--9--9-9------------------------|
E|-----------------------------------------------------------------------|

e|-----------------------------------------------------------------------|
B|-----------------------------------------------------------------------|
G|-----------------9-9-9-9-9-9-9-9---------------------------------------|
D|-9-9-9-9-9-9-9-9-9-9-9-9-9-9-9-9---------------------------------------|
A|-9-9-9-9-9-9-9-9-7-7-7-7-7-7-7-7---------------------------------------|
E|-7-7-7-7-7-7-7-7-------------------------------------------------------|
X4

Interlude 2:
e|-----------------------------------------------------------------------|
B|-----------------------------------------------------------------------|
G|------------------------------------------11----11--11----11----11--11-|
D|-101010101010101012-12-12-12-12-12-12-12---9-----9---9-----9-----9---9-|
A|-101010101010101012-12-12-12-12-12-12-12---9-----9---9-----9-----9---9-|
E|-8-8-8-8-8-8-8-8-10-10-10-10-10-10-10-10-------------------------------|
X4

Chorus:
e|-----------------------------------------------------------------------|
B|-----------------------------------------------------------------------|
G|-11-11-11-11-11-11-11-11-11-11-11-11-11-11-11-11-----------------------|
D|-11-11-11-11-11-11-11-11-11-11-11-11-11-11-11-11-----------------------|
A|-9--9--9--9--9--9--9--9--9--9--9--9--9--9--9-9------------------------|
E|-----------------------------------------------------------------------|

e|-----------------------------------------------------------------------|
B|-----------------------------------------------------------------------|
G|-----------------9-9-9-9-9-9-9-9---------------------------------------|
D|-9-9-9-9-9-9-9-9-9-9-9-9-9-9-9-9---------------------------------------|
A|-9-9-9-9-9-9-9-9-7-7-7-7-7-7-7-7---------------------------------------|
E|-7-7-7-7-7-7-7-7-------------------------------------------------------|
X4

Outro:
e|-----------------------------------------------------------------------|
B|-----------------------------------------------------------------------|
G|-11---------------11----------14-12-11---------------11----------------|
D|-11-11-12-11-9-11-11-11-12-11-14-12-11-11-12-11-9-11-11-11-12~~--------|
A|--9-11-12-11-9-11--9-11-12-11-12-10--9-11-12-11-9-11--9-11-12~~--------|
E|-----9-10--9-7--9-----9-10--9-----------9-10--9-7--9-----9-10~~--------|
Related for Youd Do The Same tab