Song name
# A B C D E F G H I J K L M N O P Q R S T U V W X Y Z

Anti-flag - Your Daddy Was A Rich Man tab

----------------------------------------------------------------------------   
Your Daddy Was A Rich Man, Your Daddy Is Fuckicking Dead - Anti-Flag
----------------------------------------------------------------------------

Tabbed by:Abe
Email:

Tuning:Normal
                                              8X
e|-------------------------------------------------------------------------|
B|-------------------------------------------------------------------------|
G|-------------------------------------------------------------------------|
D|--x-x--7-7--x-x--10-10--x-x--5-5--x-x--7-7-------------------------------|
A|--5-5-------8-8---------3-3-------5-5------------------------------------|
E|-------------------------------------------------------------------------|
                    4X
e|-------------------------------------------------------------------------|
B|-------------------------------------------------------------------------|
G|--7----3-3--10-5------3--Hold for 2 measures-----------------------------|
D|--7----3-3--10-5------3--------------------------------------------------|
A|--5----1-1--8--3------1--------------------------------------------------|
E|-------------------------------------------------------------------------|

Repeat that ^ 3 times and that's it!
The third time through it begins to speed up but it keeps the same timing and everything so have fun  


| /  slide up
| \  slide down
| h  hammer-on
| p  pull-off
| ~  vibrato
| +  harmonic
| x  Mute note
============================================================================
Tap to rate this tab
# A B C D E F G H I J K L M N O P Q R S T U V W X Y Z