Song name
# A B C D E F G H I J K L M N O P Q R S T U V W X Y Z

Anti-flag - Vieques Puerto Rico Bikini Revisited tab

-------------------------------------------------------------------------------
			Vieques Puerto Rico - Anti-Flag
-------------------------------------------------------------------------------
Tabbed by: Andres 'silvadolla' Ali
Email: andres.ali@gmail.com

Tuning: EADGBE (standard)

This is the song straight through, there are realy two guitars playing, but
I tabbed out the most important part, mostly the rhythm, but i covered some of 
the lead to spice it up a bit, if you'd like both parts, email me. 
Enjoy!

Intro:
e|---------------------------------------------------------------------------|
B|---------------------------------------------------------------------------|
G|---------------------------------------------------------------------------|
D|--6-6-6-6-6-6-6-6---8-8-8-8-8-8-8-8----------------------------------------|
A|--4-4-4-4-4-4-4-4---6-6-6-6-6-6-6-6---2-2-2-2-2-2-2-2--4-4-4-4-4-4-4-4-----|
E|--------------------------------------0-0-0-0-0-0-0-0--2-2-2-2-2-2-2-2-----| x4

Verse:
e|---------------------------------------------------------------------------|
B|---------------------------------------------------------------------------|
G|---------------------------------------------------------------------------|
D|--6-6-6-6-6-----8-8-8-8-8--------------------------------------------------|
A|--4-4-4-4-4-----6-6-6-6-6----2-2-2-2-2------4-4-4-4-4----------------------|x4
E|-----------------------------0-0-0-0-0------2-2-2-2-2----------------------|

Chorus
e|---------------------------------------------------------------------------|
B|---------------------------------------------------------------------------|
G|---------------------------------------------------------------------------|
D|----9-9-9-9-9-9-9-9--8-8-8-8-8-8-8-----------------------------------------|
A|----7-7-7-7-7-7-7-7--6-6-6-6-6-6-6---4-6-7---------------------------------|x4
E|-------------------------------------------5-------------------------------|

Bridge
e|---------------------------------------------------------------------------|
B|---------------------------------------------------------------------------|
G|---------------------------------------------------------------------------|
D|--6-6-6-6--6-8--8-8-8-8-8-9--9-9-9-9--9-11---11-11-11-11-11-9--------------|x4
A|--4-4-4-4--4/6--6-6-6-6-6/7--7-7-7-7--7/-9----9--9--9--9--9/7--------------|
E|---------------------------------------------------------------------------|

e|---------------------------------------------------------------------------|
B|---------------------------------------------------------------------------|
G|---------------------------------------------------------------------------|
D|--6-6-6-6-6-----8-8-8-8-8--------------------------------------------------|
A|--4-4-4-4-4-----6-6-6-6-6----2-2-2-2-2------4-4-4-4-4----------------------|
E|-----------------------------0-0-0-0-0------2-2-2-2-2----------------------|

Play this palm-muted 1x:

e|---------------------------------------------------------------------------|
B|---------------------------------------------------------------------------|
G|---------------------------------------------------------------------------|
D|--6-6-6-6-6-6-6-6---8-8-8-8-8-8-8-8----------------------------------------|
A|--4-4-4-4-4-4-4-4---6-6-6-6-6-6-6-6---2-2-2-2-2-2-2-2--4-4-4-4-4-4-4-4-----|
E|--------------------------------------0-0-0-0-0-0-0-0--2-2-2-2-2-2-2-2-----|

Chorus:
e|---------------------------------------------------------------------------|
B|---------------------------------------------------------------------------|
G|---------------------------------------------------------------------------|
D|----9-9-9-9-9-9-9-9--8-8-8-8-8-8-8-----------------------------------------|
A|----7-7-7-7-7-7-7-7--6-6-6-6-6-6-6---4-6-7---------------------------------|x4
E|-------------------------------------------5-------------------------------|


Outro:

e|---------------------------------------------------------------------------|
B|------7-6-4-6----9-7-6-7-----7-6-4-6---------------------------------------|
G|---------------------------------------------------------------------------|
D|----6----------6----------6------------------------------------------------|
A|----4----------4----------4------------------------------------------------|
E|---------------------------------------------------------------------------|

e|---------------------------------------------------------------------------|
B|---------------------------------------------------------------------------|
G|---------------------------------------------------------------------------|
D|--6-6-6-6-6-6-6-6---6-6-6-6-6-6-6-6----------------------------------------|
A|--4-4-4-4-4-4-4-4---4-4-4-4-4-4-4-4------4------6-7-4----------------------|
E|------------------------------------------4-2-4----------------------------|

e|---------------------------------------------------------------------------|
B|-------7-6-4-6-------------------------------------------------------------|
G|---------------------------------------------------------------------------|
D|---6-----------6-6-6-6-6-6-6--6-6-6-6-6-6-6-6------------------------------|
A|---4-----------4-4-4-4-4-4-4--4-4-4-4-4-4-4-4---4--------6-7-4-------------|
E|--------------------------------------------------4-2-4--------------------|

e|---------------------------------------------------------------------------|
B|---------------------------------------------------------------------------|
G|---------------------------------------------------------------------------|
D|---------------------------------------------------------------------------|
A|--4-6-7-9-11-12------------------------------------------------------------|
E|---------------------------------------------------------------------------|

e|---------------------------------------------------------------------------|
B|---------------------------------------------------------------------------|
G|---------------------------------------------------------------------------|
D|--6-6-6-6-6-----8-8-8-8-8--------------------------------------------------|
A|--4-4-4-4-4-----6-6-6-6-6----2-2-2-2-2------4-4-4-4-4----------------------|x4 
E|-----------------------------0-0-0-0-0------2-2-2-2-2----------------------|
hold last chord 

Fine.

Anti-Flag kicks ass!


| /  slide up
| \  slide down
| h  hammer-on
| p  pull-off
| ~  vibrato
| +  harmonic
| x  Mute note
===============================================================================
Tap to rate this tab
 
# A B C D E F G H I J K L M N O P Q R S T U V W X Y Z