Guitaretab - guitar tabs
Song name
# A B C D E F G H I J K L M N O P Q R S T U V W X Y Z

Anti-flag - Betty Sue Is Dead tab

By: blacklotus@mailcity.com

Riff 1
G C D X4
e|-------|--------||--------------------------------------------------------|
B|-------|--------||--------------------------------------------------------|
G|-------|--------||--------------------------------------------------------|
D|-------|-5/-7/--||--------------------------------------------------------|
A|-5/-//-|-3/-5/--||--------------------------------------------------------|
E|-3/-//-|--------||--------------------------------------------------------|

Riff 2 press down and lift on each note to make a eh eh eh sound
e|--------------------------------------------------------------------------|
B|-(bunch of times)---------------------------------------------------------|
G|--------------------------------------------------------------------------|
D|-12-///-5/-7/-------------------------------------------------------------|
A|-12-///-5/-7/-------------------------------------------------------------|
E|--------------------------------------------------------------------------|
[ Tab from: http://www.guitaretab.com/a/anti-flag/58427.html ]
Riff 3 * means strum the **** out of it as fast as you can until your hand hurts
e|--------------------------------------------------------------------------|
B|--------------------------------------------------------------------------|
G|--------------------------------------------------------------------------|
D|-----15-13-12-13----------------------------------------------------------|
A|-12*-12-12-12-12----------------------------------------------------------|
E|--------------------------------------------------------------------------|

Riff 1 again
Riff 3 again
then
Guitar Solo
e|---------|---------|-10-------|-------------------------------------------|
B|-12-10-8-|-8-10-12-|----12----|-------------------------------------------|
G|---------|---------|-------12-|-------------------------------------------|
D|---------|---------|----------|-------------------------------------------|
A|---------|---------|----------|-------------------------------------------|
E|---------|---------|----------|-------------------------------------------|

Riff 4
e|--------------------------------------------------------------------------|
B|--------------------------------------------------------------------------|
G|--------------------------------------------------------------------------|
D|-x-Pick-------------------------------------------------------------------|
A|-x-Scrape-----------------------------------------------------------------|
E|-x------------------------------------------------------------------------|

Bunch of talking
No body liked her cept me
Go away
Theres no suck thing as a bi sextual in 1953

back to riff 2

Riff 1
Riff 2
Riff 3
Related for Betty Sue Is Dead tab
Advertisement will be closed in 10 seconds