Song name
# A B C D E F G H I J K L M N O P Q R S T U V W X Y Z

Anti-flag - Stars And Stripes tab

-------------------------------------------------------------------------------
	                Stars and Stripes - Anti-Flag
-------------------------------------------------------------------------------
Tabbed by: Andres "silvadolla" Ali
Email: andres.ali@gmail.com

Tuning: EADGBE (STANDARD)

This is a fun little tune, the other tabs for this song weren't detailed enough, all of 
were missing the intro riff. I also facilitated the fingerings. This tab can be played 
with the track, everything's tabbed from start to finish. Enjoy!


				Intro riff:

The bassist plays a riff 1x, after that rhythm and lead guitar come in.


         Lead(Guitar I) 1x:

e|---------------------------------------------------------------------------|
B|---------------------------------------------------------------------------|
G|--6-6h8--6-6h8--9-9-8-6----------------------------------------------------|
D|---------------------------------------------------------------------------|
A|---------------------------------------------------------------------------|
E|----------------------------------pickslide--------------------------------|

	Rhythm(Guitar II) 2x:

____________PALM-MUTED_______________________________________________________
e|---------------------------------------------------------------------------|
B|---------------------------------------------------------------------------|
G|--66666666-----------------------------------------------------------------|
D|--66666666---77777777----22222222----44444444------------------------------|
A|--44444444---77777777----22222222----44444444------------------------------|
E|--xxxxxxxx---55555555----00000000----22222222------------------------------|
___________PALM-MUTED________________________________________________________


	Lead (Guitar I)

e|---------------------------------------------------------------------------|
B|---------------------------------------------------------------------------|
G|--6-6-6h8-9--9-11-13-13--13p11-11--13-11-----6-6-6h8-9--9-11-13-11--9/8/6--|
D|---------------------------------------------------------------------------|
A|---------------------------------------------------------------------------|
E|---------------------------------------------------------------------------|

	Rhythm(Guitar II)2x:

	Do not palm mute
e|---------------------------------------------------------------------------|
B|---------------------------------------------------------------------------|
G|--66666666-----------------------------------------------------------------|
D|--66666666---77777777----22222222----44444444------------------------------|
A|--44444444---77777777----22222222----44444444------------------------------|
E|--xxxxxxxx---55555555----00000000----22222222------------------------------|


From here on Guitars I and II can play the same part.

	Verse 6x:

e|-----------------|
B|-----------------|
G|----6------6-----|
D|----6---7--6--7--|
A|----4---7--4--7--|
E|----x---5--x--5--|


	Pre-chorus 2x:

___________PALM-MUTED______
e|-------------------------|
B|-------------------------|
G|-------------------------|
D|-6-6-6-6-6-6-6-6-6-6-6-6-|
A|-6-6-6-6-6-6-6-6-6-6-6-6-|
E|-4-4-4-4-4-4-4-4-4-4-4-4-|
___________PALM-MUTED______


	Chorus 2x:

e|---------------------------------------------------------------------------|
B|---------------------------------------------------------------------------|
G|----66666666---------------------------------------------------------------|
D|----66666666---77777777----2222222----44444444-----------------------------|
A|----44444444---77777777----2222222----44444444-----------------------------|
E|----xxxxxxxx---55555555----0000000----22222222-----------------------------|

	Verse 6x:

e|-----------------|
B|-----------------|
G|----6------6-----|
D|----6---7--6--7--|
A|----4---7--4--7--|
E|----x---5--x--5--|


	Pre-chorus 2x:

___________PALM-MUTED______
e|-------------------------|
B|-------------------------|
G|-------------------------|
D|-6-6-6-6-6-6-6-6-6-6-6-6-|
A|-6-6-6-6-6-6-6-6-6-6-6-6-|
E|-4-4-4-4-4-4-4-4-4-4-4-4-|
___________PALM-MUTED______


	Chorus 4x:

e|---------------------------------------------------------------------------|
B|---------------------------------------------------------------------------|
G|----66666666---------------------------------------------------------------|
D|----66666666---77777777----2222222----44444444-----------------------------|
A|----44444444---77777777----2222222----44444444-----------------------------|
E|---------------55555555----0000000----22222222-----------------------------|


	Bridge Part a. 3x, palm-muted on the 3rd time:
e|---------------------------------------------------------------------------|
B|---------------------------------------------------------------------------|
G|---44444444--66666666--22222222--------------------------------------------|
D|---44444444--66666666--22222222--22222222----------------------------------|
A|---22222222--44444444--00000000--22222222----------------------------------|
E|---xxxxxxxx--xxxxxxxx--xxxxxxxx--00000000----------------------------------|


	Bridge Part b. 1x:

e|-------------------------------|
B|-------------------------------|
G|---2--2-------4----------------|
D|---2--2-------4----------------|
A|---0--0-------2----------------|
E|-------------------------------|

	Chorus 4x:

e|---------------------------------------------------------------------------|
B|---------------------------------------------------------------------------|
G|----66666666---------------------------------------------------------------|
D|----66666666---77777777----2222222----44444444-----------------------------|
A|----44444444---77777777----2222222----44444444-----------------------------|
E|---------------55555555----0000000----22222222-----------------------------|


	Verse 1x:

e|-----|-1-|----|------|--------|-------|
B|-----|--2|----|------|--------|-------|
G|-6-2-|---|-6-2|--6---|-6-6-2-2|-------|
D|-6-2-|---|-6-2|--x---|-6-6-2-2|2-2-4-4|
A|-4-0-|---|-4-0|-/4---|-4-4-0-0|2-2-4-4|
E|-----|---|----|------|--------|0-0-2-2|

e|------------------------|
B|---------------------7-7|
G|-6-6-6-6--2-2-2-2----6-6|
D|-6-6-6-6--2-2-2-2--2----|
A|-4-4-4-4--0-0-0-0--2----|
E|-------------------0----|


	Chorus 4x:

e|---------------------------------------------------------------------------|
B|---------------------------------------------------------------------------|
G|----66666666---------------------------------------------------------------|
D|----66666666---77777777----2222222----44444444-----------------------------|
A|----44444444---77777777----2222222----44444444-----------------------------|
E|----xxxxxxxx---55555555----0000000----22222222-----------------------------|

Fade out on a C#5 chord

Fine.

Hope you enjoyed it, please email me with any comments or suggestions.

Anti-Flag kicks ass!


| /  slide up
| \  slide down
| h  hammer-on
| p  pull-off
| ~  vibrato
| +  harmonic
| x  Mute note
===============================================================================
Tap to rate this tab
# A B C D E F G H I J K L M N O P Q R S T U V W X Y Z