Guitaretab - guitar tabs
Song name
# A B C D E F G H I J K L M N O P Q R S T U V W X Y Z

Anti-flag - Post War Breakout tab

POST-WAR BREAKOUT BY ANTI-FLAG
Tabbed by: fracturedrich

All the other tabs I found for this were completely wrong, so I tried by best to get 
spot on. If there are any problems with the tab, e-mail me at rich.e@virgin.net. And if you 
like the tab please rate!! peace

tp- tremolo pick
^ - bend
~ - let ring
h  hammer on
p  pull off
\ - slide (down)
/ - slide (up)

INTRO:
e|1-1--1--6-6--6--1-1--1--1-1--1-|   |1-1--1--6-6--6--1~------|
B|2-2--2--7-7--7--1-1--1--2-2--2-|   |2-2--2--7-7--7--1~----1-|
G|3-3--3--8-8--8--2-2--2--3-3--3-|   |3-3--3--8-8--8--2~---2--|
D|3-3--3--8-8--8--3-3--3--3-3--3-|   |3-3--3--8-8--8--3~--3---|
A|1-1--1--6-6--6--3-3--3--1-1--1-|x3 |1-1--1--6-6--6--3~-3----|
E|----------------1-1--1---------|   |----------------1~------|

LEAD: (during intro)
e|-------------------------------|
B|-------------------------------|
G|-10h11h13p11p10h11p10----------|
D|-------------------------------|
A|-------------------------------|
E|-------------------------------|

CHORUS:
e|-------------------------------------------------------------------------|
B|-------------------------------------------------------------------------|
G|3-1-3-1-8-6-8-6------------------3-1-3-1-8-6-8-6-------------------------|
D|3-1-3-1-8-6-8-6-3-1-3-1-3-1-6-6--3-1-3-1-8-6-8-6-3-3--3-3--3-3--3-3--3--3|
A|1-1-1-1-6-6-6-6-3-1-3-1-3-1-6-6--1-1-1-1-6-6-6-6-3-3--3-3--3-3--3-3--3--3|
E|----------------1-1-1-1-1-1-4-4------------------1-1--1-1--1-1--1-1--1--1|

e|-------------------------------------------------------------------------|
B|-------------------------------------------------------------------------|
G|3-1-3-1-8-6-8-6------------------3-1-3-1-8-6-8-6-------------------------|
D|3-1-3-1-8-6-8-6-3-1-3-1-3-1-6-6--3-1-3-1-8-6-8-6-3-3-3-------------------|
A|1-1-1-1-6-6-6-6-3-1-3-1-3-1-6-6--1-1-1-1-6-6-6-6-3-3-3-------------------|
E|----------------1-1-1-1-1-1-4-4------------------1-1-1--6\---------------|

VERSE 1:
e|1-1--1--6-6--6--1-1--1--1-1--1-|
B|2-2--2--7-7--7--1-1--1--2-2--2-|
G|3-3--3--8-8--8--2-2--2--3-3--3-|
D|3-3--3--8-8--8--3-3--3--3-3--3-|
A|1-1--1--6-6--6--3-3--3--1-1--1-|x4
E|----------------1-1--1---------|

PRE-CHORUS 1:
e|-2~--1~--2~-------------------|
B|-2~--1~--2~-------------------|
G|-3~--2~--3~-------------------|
D|-4~--3~--4~-------------------|
A|-4~--3~--4~-------------------|
E|-2~--1~--2~--1-2-1-2-1-2-1-2--|
[ Tab from: http://www.guitaretab.com/a/anti-flag/69335.html ]
CHORUS:
e|-------------------------------------------------------------------------|
B|-------------------------------------------------------------------------|
G|3-1-3-1-8-6-8-6------------------3-1-3-1-8-6-8-6-------------------------|
D|3-1-3-1-8-6-8-6-3-1-3-1-3-1-6-6--3-1-3-1-8-6-8-6-3-3--3-3--3-3--3-3--3--3|
A|1-1-1-1-6-6-6-6-3-1-3-1-3-1-6-6--1-1-1-1-6-6-6-6-3-3--3-3--3-3--3-3--3--3|
E|----------------1-1-1-1-1-1-4-4------------------1-1--1-1--1-1--1-1--1--1|

e|-------------------------------------------------------------------------|
B|-------------------------------------------------------------------------|
G|3-1-3-1-8-6-8-6------------------3-1-3-1-8-6-8-6-------------------------|
D|3-1-3-1-8-6-8-6-3-1-3-1-3-1-6-6--3-1-3-1-8-6-8-6-3-3-3-------------------|
A|1-1-1-1-6-6-6-6-3-1-3-1-3-1-6-6--1-1-1-1-6-6-6-6-3-3-3-------------------|
E|----------------1-1-1-1-1-1-4-4------------------1-1-1--6\---------------|

VERSE 2:

e|-------------------------------------------------------------------------|
B|-------------------------------------------------------------------------|
G|-------------------------------------------------------------------------|
D|-----------------------------(NO GUITAR)---------------------------------|
A|-------------------------------------------------------------------------|
E|-------------------------------------------------------------------------|

PRE-CHORUS 2:
e|-2-2-----------------------2-2----------------------------------------|
B|-2---2---2-6-4-------------2---2---2----------------------------------|
G|-3-----3---6---6---6-------3-----3------------------------------------|
D|-4---------6-----6---------4------------------------------------------|
A|-4---------4---------------4------------------------------------------|
E|-2-------------------0-1-2-2----------1-2-1-2-1-2-1-2-1-2-1-2-1-2-1-2-|
CHORUS:
e|-------------------------------------------------------------------------|
B|-------------------------------------------------------------------------|
G|3-1-3-1-8-6-8-6------------------3-1-3-1-8-6-8-6-------------------------|
D|3-1-3-1-8-6-8-6-3-1-3-1-3-1-6-6--3-1-3-1-8-6-8-6-3-3--3-3--3-3--3-3--3--3|
A|1-1-1-1-6-6-6-6-3-1-3-1-3-1-6-6--1-1-1-1-6-6-6-6-3-3--3-3--3-3--3-3--3--3|
E|----------------1-1-1-1-1-1-4-4------------------1-1--1-1--1-1--1-1--1--1|

e|-------------------------------------------------------------------------|
B|-------------------------------------------------------------------------|
G|3-1-3-1-8-6-8-6------------------3-1-3-1-8-6-8-6-------------------------|
D|3-1-3-1-8-6-8-6-3-1-3-1-3-1-6-6--3-1-3-1-8-6-8-6-3-3-3-------------------|
A|1-1-1-1-6-6-6-6-3-1-3-1-3-1-6-6--1-1-1-1-6-6-6-6-3-3-3-------------------|
E|----------------1-1-1-1-1-1-4-4------------------1-1-1--6\---------------|

SOLO: (chorus in background)
e|-1tp-/-13tp---|
B|-1tp-/-14tp---|
G|--------------|
D|--------------|
A|--------------|
E|--------------|

LEAD: (chorus in background first 4 times)
e|-------------------------------|
B|-------------------------------|
G|-11^-11^-11^-11^-11^-----------|
D|-------------------------------|x5
A|-------------------------------|
E|-------------------------------|
Related for Post War Breakout tab