Song name
# A B C D E F G H I J K L M N O P Q R S T U V W X Y Z

Anti-flag - Consumers Song tab

Song: The consumers song
Artist: Anti-Flag
Tabbed by: rotten_future90@hotmail.com


< volume swell
. deaden note
* palm muting
\ slide

Intro
[-3----3----|-------------|---3-3-3--2-2-3-2-----]
[-3----3----|-------------|---3-3-3--3-3-----3---]
[-0----0----|-------------|---0-0-0--2-2-------2-]
[-0----0----|-------------|---0-0-0--0-----------]
[-2---------|--3-3-3------|----------------------]
[-3---------|--1-1-1--13 \|--3-------------------]
  <    .       * * *      
Verse
[------3------3------3------3---3-3-3-3--2-2-3-2------------]
[------3------3------3------3---3-3-3-3--3-3-----3----------]
[------0------0------0------0---0-0-0-0--2-2-------2--------]
[-------------------------------0-0-0-0--0-0----------------]
[--3-3---2222---3333---2222---------------------------------]
[-----------------------------------------------------------]
  * *    ****   ****   ****
[-0-0-0-0--0-0-0---2-2-2-------------]
[-0-0-0-0--1-1-1---3-3-3-------------]
[-0-0-0-0--0-0-0---2-2-2-------------]
[-2-2-2-2--2-------0-0-0-------------]
[-2--------3-------------------------]
[-0----------------------------------]

[--3-3-3-3--2-2-3-2-----------------------]
[--3-3-3-3--3-3-----3---------------------]
[--0-0-0-0--2-2-------2-------------------]
[--0-0-0-0--0-----------------------------]
[-----------------------------------------]
[--3--------------------------------------]

[------3------3------3------3---3-3-3-3-3--2---------------]
[------3------3------3------3---3-3-3-3-3--3---------------]
[------0------0------0------0---0-0-0-0-0--2---------------]
[-------------------------------0-0-0-0-0--0---------------]  
[--3-3---2222---3333---2222--------------------------------] 
[----------------------------------------------------------]
  * *    ****   ****   ****                .

[--0-0-0-0-------0-0-0-0-------------------------]
[--1-1-1-1-------1-1-1-1-------------------------]
[--0-0-0-0-------0-0-0-0-------------------------] Repeat the whole thing
[--2-2-2-2-------2-2-2-2-------------------------] X 3 on the third 
[--3-3-3-3--0-2--3--------0-2--------------------] palm mute the whole thing
[------------------------------------------------]

then finally 
[--2-2----0-0----0-0-----------------------------]
[--3-3----0-0----1-1-----------------------------]
[--2-2----0-0----0-0-----------------------------] repeat X 3
[--0-0----2-2----2-2-----------------------------]
[---------2-2----3-3-----------------------------]
[------00-----00------33-33-33-------------------]
       **     **      ** ** **
[--0--------------------------------------]
[--1--------------------------------------] finish with a c chord
[--0--------------------------------------]
[--2--------------------------------------]
[--3--------------------------------------]
[-----------------------------------------]
Tap to rate this tab
# A B C D E F G H I J K L M N O P Q R S T U V W X Y Z