Song name
# A B C D E F G H I J K L M N O P Q R S T U V W X Y Z

Anti-flag - Confessions Of An Economic Hitman tab

------------------------------------------------------------------------------
                Confessions of an Economic Hitman - Anti-Flag
-------------------------------------------------------------------------------
Tabbed by: Andres 'silvadolla' Ali
Email: andres.ali@gmail.com

Tuning: EADGBE (standard) 


Yea, so I heard this song, and I just had to tab it out. Everything's tabbed straight through, enjoy.

Intro:
e|---------------------------------------------------------------------------|
B|---------------------------------------------------------------------------|
G|---------------------------------------------------------------------------|
D|-----------6--6--------------x--------------6--6----5----------------------|
A|-3--3------4--4-----3-3------x----3--3------4--4----3----------------------|
E|-1--1---------------1-1------x----1--1-------------------------------------|

e|---------------------------------------------------------------------------|
B|-6-6------4-4------6-6-------4-4----6-6------4-4---------------------------|
G|------5-5---------------5-5--------------5-5-----------5--5-6-5------------|
D|---------------------------------------------------------------------------|
A|---------------------------------------------------------------------------|
E|---------------------------------------------------------------------------|

e|---------------------------------------------------------------------------|
B|-6-6------4-4------6-6-------4-4----6-6------4-4-------8--8-9-8--6---------|
G|------5-5---------------5-5--------------5-5-------------------------------|
D|---------------------------------------------------------------------------|
A|---------------------------------------------------------------------------|
E|---------------------------------------------------------------------------|

Verse:

e|---------------------------------------------------------------------------|
B|---------------------------------------------------------------------------|
G|---------------------------------------------------------------------------|
D|------------6---6--------------------------6--6-----5--5-------------------|
A|---3--3-----4---4------3--3--------3--3----4--4-----3--3-------------------|
E|---1--1----------------1--1--------1--1------------------------------------|

e|---------------------------------------------------------------------------|
B|---------------------------------------------------------------------------|
G|---------------------------------------------------------------------------|
D|------------6---6-------------6--6----8--8-----------6--6------------------|
A|---3--3-----4---4-----3--3----4--4----6--6---3--3----4--4------------------|
E|---1--1---------------1--1-------------------1--1--------------------------|

e|---------------------------------------------------------------------------|
B|---------------------------------------------------------------------------|
G|---------------------------------------------------------------------------|
D|--5-5-5-5-5-5-5-5--5-5-5-5-5-5-5-5-----------------------------------------|
A|--3-3-3-3-3-3-3-3--3-3-3-3-3-3-3-3-----------------------------------------|
E|---------------------------------------------------------------------------|


Chorus: 
e|---------------------------------------------------------------------------|
B|---------------------------------------------------------------------------|
G|---------------------------------------------------------------------------|
D|--------------------6-6-6-6-6-6-6-6----------------------------------------|
A|-3-3-3-3-3-3-3-3----4-4-4-4-4-4-4-4---6-6-6-6-6-6-6-6----------------------|
E|-1-1-1-1-1-1-1-1----------------------4-4-4-4-4-4-4-4---8-8-8-9-8-6-1------|

e|---------------------------------------------------------------------------|
B|---------------------------------------------------------------------------|
G|---------------------------------------------------------------------------|
D|--------------------6-6-6-6-6-6-6-6--------------------17-17-17------------|
A|-3-3-3-3-3-3-3-3----4-4-4-4-4-4-4-4---6-6-6-6-6-6-6-6--15-15-15------------|
E|-1-1-1-1-1-1-1-1----------------------4-4-4-4-4-4-4-4----------------------|

e|---------------------------------------------------------------------------|
B|---------------------------------------------------------------------------|
G|---------------------------------------------------------------------------|
D|--------------------6-6-6-6-6-6-6-6----------------------------------------|
A|-3-3-3-3-3-3-3-3----4-4-4-4-4-4-4-4---6-6-6-6-6-6-6-6----------------------|
E|-1-1-1-1-1-1-1-1----------------------4-4-4-4-4-4-4-4---8-8-8-9-8-6-1------|

e|---------------------------------------------------------------------------|
B|---------------------------------------------------------------------------|
G|---------------------------------------------------------------------------|
D|--------------------6-6-6-6-6-6-6-6--------------------5-5-5-5-5-5-5-5-5---|
A|-3-3-3-3-3-3-3-3----4-4-4-4-4-4-4-4---6-6-6-6-6-6-6-6--3-3-3-3-3-3-3-3-3---|
E|-1-1-1-1-1-1-1-1----------------------4-4-4-4-4-4-4-4----------------------|


Fill:

e|---------------------------------------------------------------------------|
B|-6-6------4-4------6-6-------4-4----6-6------4-4---------------------------|
G|------5-5---------------5-5--------------5-5-----------5--5-6-5------------|
D|---------------------------------------------------------------------------|
A|---------------------------------------------------------------------------|
E|---------------------------------------------------------------------------|

e|---------------------------------------------------------------------------|
B|-6-6------4-4------6-6-------4-4----6-6------4-4-------8--8-9-9--6---------|
G|------5-5---------------5-5--------------5-5-------------------------------|
D|---------------------------------------------------------------------------|
A|---------------------------------------------------------------------------|
E|---------------------------------------------------------------------------|

Verse:

e|---------------------------------------------------------------------------|
B|---------------------------------------------------------------------------|
G|---------------------------------------------------------------------------|
D|------------6---6--------------------------6--6-----5--5-------------------|
A|---3--3-----4---4------3--3--------3--3----4--4-----3--3-------------------|
E|---1--1----------------1--1--------1--1------------------------------------|

e|---------------------------------------------------------------------------|
B|---------------------------------------------------------------------------|
G|---------------------------------------------------------------------------|
D|--------------6-6-6-6-6-6---------------5-5-5-5-5-5------------------------|
A|-3-3-3-3-3-3--4-4-4-4-4-4--6-6-6-6-6-6--3-3-3-3-3-3------------------------|
E|-1-1-1-1-1-1---------------4-4-4-4-4-4-------------------------------------|

e|---------------------------------------------------------------------------|
B|---------------------------------------------------------------------------|
G|---------------------------------------------------------------------------|
D|--------------6-6-6-6-6-6--5-5-5-5-5-5-5-5--5-5-5-5-5-5-5-5----------------|
A|-3-3-3-3-3-3--4-4-4-4-4-4--3-3-3-3-3-3-3-3--3-3-3-3-3-3-3-3----------------|
E|-1-1-1-1-1-1---------------------------------------------------------------|


Chorus: 
e|---------------------------------------------------------------------------|
B|---------------------------------------------------------------------------|
G|---------------------------------------------------------------------------|
D|--------------------6-6-6-6-6-6-6-6----------------------------------------|
A|-3-3-3-3-3-3-3-3----4-4-4-4-4-4-4-4---6-6-6-6-6-6-6-6----------------------|
E|-1-1-1-1-1-1-1-1----------------------4-4-4-4-4-4-4-4---8-8-8-9-8-6-1------|

e|---------------------------------------------------------------------------|
B|---------------------------------------------------------------------------|
G|---------------------------------------------------------------------------|
D|--------------------6-6-6-6-6-6-6-6--------------------17-17-17------------|
A|-3-3-3-3-3-3-3-3----4-4-4-4-4-4-4-4---6-6-6-6-6-6-6-6--15-15-15------------|
E|-1-1-1-1-1-1-1-1----------------------4-4-4-4-4-4-4-4----------------------|

e|---------------------------------------------------------------------------|
B|---------------------------------------------------------------------------|
G|---------------------------------------------------------------------------|
D|--------------------6-6-6-6-6-6-6-6----------------------------------------|
A|-3-3-3-3-3-3-3-3----4-4-4-4-4-4-4-4---6-6-6-6-6-6-6-6----------------------|
E|-1-1-1-1-1-1-1-1----------------------4-4-4-4-4-4-4-4---8-8-8-9-8-6-1------|

e|---------------------------------------------------------------------------|
B|---------------------------------------------------------------------------|
G|---------------------------------------------------------------------------|
D|--------------------6-6-6-6-6-6-6-6--------------------5-5-5-5-5-5-5-5-5---|
A|-3-3-3-3-3-3-3-3----4-4-4-4-4-4-4-4---6-6-6-6-6-6-6-6--3-3-3-3-3-3-3-3-3---|
E|-1-1-1-1-1-1-1-1----------------------4-4-4-4-4-4-4-4----------------------|

e|---------------------------------------------------------------------------|
B|---------------------------------------------------------------------------|
G|---------------------------------------------------------------------------|
D|----------6-6-6-----------5-5-5--------------------------------------------|
A|--3-3-3---4-4-4---6-6-6---3-3-3--------------------------------------------|
E|--1-1-1-----------4-4-4----------------------------------------------------|x2

e|---------------------------------------------------------------------------|
B|---------------------------------------------------------------------------|
G|---------------------------------------------------------------------------|
D|-----------6-6-6------------5-5-5------------------------------------------|
A|--3-3-3-3--4-4-4---6-6-6-6--3-3-3------------------------------------------|
E|--1-1-1-1----------4-4-4-4-------------------------------------------------|


Chorus: 
e|---------------------------------------------------------------------------|
B|---------------------------------------------------------------------------|
G|---------------------------------------------------------------------------|
D|--------------------6-6-6-6-6-6-6-6----------------------------------------|
A|-3-3-3-3-3-3-3-3----4-4-4-4-4-4-4-4---6-6-6-6-6-6-6-6----------------------|
E|-1-1-1-1-1-1-1-1----------------------4-4-4-4-4-4-4-4---8-8-8-9-8-6-1------|

e|---------------------------------------------------------------------------|
B|---------------------------------------------------------------------------|
G|---------------------------------------------------------------------------|
D|--------------------6-6-6-6-6-6-6-6--------------------17-17-17------------|
A|-3-3-3-3-3-3-3-3----4-4-4-4-4-4-4-4---6-6-6-6-6-6-6-6--15-15-15------------|
E|-1-1-1-1-1-1-1-1----------------------4-4-4-4-4-4-4-4----------------------|

e|---------------------------------------------------------------------------|
B|---------------------------------------------------------------------------|
G|---------------------------------------------------------------------------|
D|--------------------6-6-6-6-6-6-6-6----------------------------------------|
A|-3-3-3-3-3-3-3-3----4-4-4-4-4-4-4-4---6-6-6-6-6-6-6-6----------------------|
E|-1-1-1-1-1-1-1-1----------------------4-4-4-4-4-4-4-4---8-8-8-9-8-6-1------|

e|---------------------------------------------------------------------------|
B|---------------------------------------------------------------------------|
G|---------------------------------------------------------------------------|
D|--------------------6-6-6-6-6-6-6-6--------------------5-5-5-5-5-5-5-5-5---|
A|-3-3-3-3-3-3-3-3----4-4-4-4-4-4-4-4---6-6-6-6-6-6-6-6--3-3-3-3-3-3-3-3-3---|
E|-1-1-1-1-1-1-1-1----------------------4-4-4-4-4-4-4-4----------------------|

e|---------------------------------------------------------------------------|
B|---------------------------------------------------------------------------|
G|---------------------------------------------------------------------------|
D|-6-6-6-6-6-6-6-6--6-6-6-6-6-6-6-6--8-8-8-8-8-8-8-8--10---------------------|
A|-4-4-4-4-4-4-4-4--4-4-4-4-4-4-4-4--6-6-6-6-6-6-6-6--8----------------------|
E|---------------------------------------------------------------------------|
Fine.

Hope you enjoyed the tab, please email me with any comments/suggestions at
andres.ali@gmail.com, thanks.


Anti-Flag kicks ass!

| /  slide up
| \  slide down
| h  hammer-on
| p  pull-off
| ~  vibrato
| +  harmonic
| x  Mute note
===============================================================================
Tap to rate this tab
# A B C D E F G H I J K L M N O P Q R S T U V W X Y Z