Song name
# A B C D E F G H I J K L M N O P Q R S T U V W X Y Z

Anti-flag - Press Corpse tab

-------------------------------------------------------------------------------
			     The Press Corpse - Anti-Flag
-------------------------------------------------------------------------------
/  slide up
| \  slide down
| h  hammer-on
| p  pull-off
| ~  vibrato
| +  harmonic
| x  Mute note

The rhythm on the verse is quite hard, I've put the right number of chords in so listen 
the track to get it right.

Intro & Verse:
                                      "the memo says we gotta work to make the facts...."
e|-------------------------------------------------------------------------------|
B|-------------------------------------------------------------------------------|
G|-3-3-3-3-3-3-3-3-3--------3-3-3-3-3-3-3-3-3-3-3-3--6-6-6-6-6--5-5-5-5-5-5------|
D|-3-3-3-3-3-3-3-3-3--------3-3-3-3-3-3-3-3-3-3-3-3--6-6-6-6-6--6-6-6-6-6-6------|
A|-1-1-1-1-1-1-1-1-1--------1-1-1-1-1-1-1-1-1-1-1-1--4-4-4-4-4--6-6-6-6-6-6------|
E|-----------------------------------------------------------------4-4-4-4-4-4---|

"we dont want to talk about it"
e|-------------------------------------|
B|-------------------------------------|
G|------------------3-3-3-3------------|
D|-4-4-4-4-4-4-4-4-3-3-3-3-6-6-6-6-----|
A|-4-4-4-4-4-4-4-4-1-1-1-1-6-6-6-6-----|
E|-2-2-2-2-2-2-2-2----------4-4-4-4----|

"The press scribble scribble every half truth spoke..."
e|-----------------------------------------------------|
B|-----------------------------------------------------|
G|-3-3-3-3-3-3-3-3-3-3-3-3--6-6-6-6-6--5-5-5-5-5-5-----|
D|-3-3-3-3-3-3-3-3-3-3-3-3--6-6-6-6-6--6-6-6-6-6-6-----|
A|-1-1-1-1-1-1-1-1-1-1-1-1--4-4-4-4-4--6-6-6-6-6-6-----|
E|---------------------------------------4-4-4-4-4-4---|

Pre-Chorus:

"They talk it up all day..."
e|---------------------------------------------|
B|---------------------------------------------|
G|-----3-3-----3-3------3-3--------------------|
D|-4-4-3-3-4-4-3-3-4-4-3-3-6-6-6-6-6-6-6-6-----|
A|-4-4-1-1-4-4-1-1-4-4-1-1-6-6-6-6-6-6-6-6-----|
E|-2-2-----2-2------2-2-----4-4-4-4-4-4-4-4----|

"but when the truth escapes the night..."
e|-----------------------------------------|
B|-----------------------------------------|
G|-----3-3-----3-3------3-3----------------|
D|-4-4-3-3-4-4-3-3-4-4-3-3-6-6-6-6-6-6-----|
A|-4-4-1-1-4-4-1-1-4-4-1-1-6-6-6-6-6-6-----|
E|-2-2-----2-2------2-2-----4-4-4-4-4-4----|

Chorus:

Guitar 1-

"They don't want to...   talk talk talk talk talk about it..."
e|-----------------------------------------------------------------------|
B|-----------------------------------------------------------------------|
G|------------------3-3-3-3-3-3-3-3-6-6-6-6-6-6-6-6----------------------|
D|------------------3-3-3-3-3-3-3-3-6-6-6-6-6-6-6-6-6-6-6-6-6-6-6-6------|
A|------------------1-1-1-1-1-1-1-1-4-4-4-4-4-4-4-4-6-6-6-6-6-6-6-6------|
E|----------------------------------------------------4-4-4-4-4-4-4-4----|

"Whoa, Whoa"
e|--------------------|
B|--------------------|
G|--------------------|
D|-4-4-4-4-6-6-6-6----|
A|-4-4-4-4-6-6-6-6----|
E|-2-2-2-2-4-4-4-4----|

Guitar 2-
"They dont want to talk talk talk talk talk..."
e|--------------------------------------------------------------------------------|
B|--------------------------------------------------------------------------------|
G|--------------15------13-13-13-15-------13-13-13--18------13-11----13-----------|
D|--------------x--------x--x--x--x--------x--x--x---x--------x-x------x----------|
A|--------------13-(x16)-11-11-11-13-(x16)-11-11-11--16-(x16)-11-9-(x4)-11-(x4)---|
E|--------------------------------------------------------------------------------|


Verse:
                                     "And now on the TV screen diversion and aversion..."
e|-------------------------------------------------------------------------------|
B|-------------------------------------------------------------------------------|
G|-3-3-3-3-3-3-3-3-3--------3-3-3-3-3-3-3-3-3-3-3-3--6-6-6-6-6--5-5-5-5-5-5------|
D|-3-3-3-3-3-3-3-3-3--------3-3-3-3-3-3-3-3-3-3-3-3--6-6-6-6-6--6-6-6-6-6-6------|
A|-1-1-1-1-1-1-1-1-1--------1-1-1-1-1-1-1-1-1-1-1-1--4-4-4-4-4--6-6-6-6-6-6------|
E|-----------------------------------------------------------------4-4-4-4-4-4---|

"we dont want to talk about it"
e|-------------------------------------|
B|-------------------------------------|
G|------------------3-3-3-3------------|
D|-4-4-4-4-4-4-4-4-3-3-3-3-6-6-6-6-----|
A|-4-4-4-4-4-4-4-4-1-1-1-1-6-6-6-6-----|
E|-2-2-2-2-2-2-2-2----------4-4-4-4----|

                                     "The white house boils over Al Jazeera got it wrong..."
e|-------------------------------------------------------------------------------|
B|-------------------------------------------------------------------------------|
G|-3-3-3-3-3-3-3-3-3--------3-3-3-3-3-3-3-3-3-3-3-3--6-6-6-6-6--5-5-5-5-5-5------|
D|-3-3-3-3-3-3-3-3-3--------3-3-3-3-3-3-3-3-3-3-3-3--6-6-6-6-6--6-6-6-6-6-6------|
A|-1-1-1-1-1-1-1-1-1--------1-1-1-1-1-1-1-1-1-1-1-1--4-4-4-4-4--6-6-6-6-6-6------|
E|-----------------------------------------------------------------4-4-4-4-4-4---|

Pre-Chorus:

"They talk it up all day..."
e|---------------------------------------------|
B|---------------------------------------------|
G|-----3-3-----3-3------3-3--------------------|
D|-4-4-3-3-4-4-3-3-4-4-3-3-6-6-6-6-6-6-6-6-----|
A|-4-4-1-1-4-4-1-1-4-4-1-1-6-6-6-6-6-6-6-6-----|
E|-2-2-----2-2------2-2-----4-4-4-4-4-4-4-4----|

"but when the truth escapes the night..."
e|-----------------------------------------|
B|-----------------------------------------|
G|-----3-3-----3-3------3-3----------------|
D|-4-4-3-3-4-4-3-3-4-4-3-3-6-6-6-6-6-6-----|
A|-4-4-1-1-4-4-1-1-4-4-1-1-6-6-6-6-6-6-----|
E|-2-2-----2-2------2-2-----4-4-4-4-4-4----|

Chorus:

Guitar 1-

"They don't want to...   talk talk talk talk talk about it..."
e|-----------------------------------------------------------------------|
B|-----------------------------------------------------------------------|
G|------------------3-3-3-3-3-3-3-3-6-6-6-6-6-6-6-6----------------------|
D|------------------3-3-3-3-3-3-3-3-6-6-6-6-6-6-6-6-6-6-6-6-6-6-6-6------|
A|------------------1-1-1-1-1-1-1-1-4-4-4-4-4-4-4-4-6-6-6-6-6-6-6-6------|
E|----------------------------------------------------4-4-4-4-4-4-4-4----|

"Whoa, Whoa"
e|--------------------|
B|--------------------|
G|--------------------|
D|-4-4-4-4-6-6-6-6----|
A|-4-4-4-4-6-6-6-6----|
E|-2-2-2-2-4-4-4-4----|

Guitar 2-
"They dont want to talk talk talk talk talk..."
e|--------------------------------------------------------------------------------|
B|--------------------------------------------------------------------------------|
G|--------------15------13-13-13-15-------13-13-13--18------13-11----13-----------|
D|--------------x--------x--x--x--x--------x--x--x---x--------x-x------x----------|
A|--------------13-(x16)-11-11-11-13-(x16)-11-11-11--16-(x16)-11-9-(x4)-11-(x4)---|
E|--------------------------------------------------------------------------------|

Bridge-

e|--------------------------------------------------------------|
B|----------------------11------------------6-7-6-7-9-7-6-7-----|
G|-3----------10-8-6-7-----3------------------------------------|
D|-3-----------------------3------------------------------------|
A|-1-----------------------1------------------------------------|
E|--------------------------------------------------------------|

"Fires fuelled on endless lies..."

e|-------------------------------------|
B|-------------------------------------|
G|-3-3-3-3-3-3-3-3-6-6-6-6-------------|
D|-3-3-3-3-3-3-3-3-6-6-6-6-6-6-6-6-----|
A|-1-1-1-1-1-1-1-1-4-4-4-4-6-6-6-6-----|
E|---------------------------4-4-4-4---|

"We dont want to talk about it..."
e|-----------------------------|
B|-----------------------------|
G|-11-10--------11-10-12-15----|
D|-------10-11-----------------|
A|-----------------------------|
E|-----------------------------|

"We dont want to talk about it..."
e|-----------------------------------------------------------------------------|
B|-----------------------------------------------------------------------------|
G|-11-10-8-6-11-10-8-10--------------------------------------------------------|
D|-----------------------------------------------------------------------------|
A|-----------------------------------------------------------------------------|
E|-----------------------------------------------------------------------------|

Then its the chorus and you done! Hope this helped, the rhythm isnt hard to get.
Tap to rate this tab
 
# A B C D E F G H I J K L M N O P Q R S T U V W X Y Z