Song name
# A B C D E F G H I J K L M N O P Q R S T U V W X Y Z

Anti-flag - This Is The End For You My Friend tab

Tabber: white_dragon_paladin@hotmail.com
I tried my best to make this tab accurately so please don't rate to hard.
 __________________________________________________________________________
|                   This Is The End (For You My Friend)                    |
|__________________________________________________________________________|
 _______
|Legend:|________________________________
|~ = slide finger up (or down) fret board|
|________________________________________|

wait while the drums do the intro.

verse:
           repeat 6x                     1-5,  6
e|-6-6-6-6-6---1-1-1-1-3-3---6-6-6-6-6-|-1~6-|----|
b|-6-6-6-6-6---1-1-1-1-3-3---6-6-6-6-6-|-----|-7--|
g|-6-6-6-6-6---1-1-1-1-3-3---6-6-6-6-6-|-----|-8--|
d|-8-8-8-8-8---3-3-3-3-5-5---8-8-8-8-8-|-----|-8--|
a|-8-8-8-8-8---3-3-3-3-5-5---8-8-8-8-8-|-----|-6--|
e|-6-6-6-6-6---1-1-1-1-3-3---6-6-6-6-6-|-----|----|

pre-chorus"
e|-----|
b|-----|
g|-6---|
d|-6-6-|
a|-4-6-|
e|---4-|

chorus:   repeat 4x
e|---------------------------------|
b|---------------------------------|
g|-6-6-6-6-4-4-4-4-6-6-6-6-2-2-2-4-|
d|-6-6-6-6-6-6-6-6-8-8-8-8-4-4-4-6-|
a|-4-4-4-4-6-6-6-6-8-8-8-8-4-4-4-6-|
e|-4-4-4-4-4-4-4-4-6-6-6-6-2-2-2-4-|

solo: (not completely sure if this is right)
e|-------------------------------------------------------|
b|-6-6-6-6-4-6-4-----------4-6--4-7-4-6------7-4-6-------|
g|---------------4-6-6-4-6--------------6-6-6------6-6-6-|
d|--------------6----------------------------------------|
a|-------------------------------------------------------|
e|-------------------------------------------------------|

e|------------------------------------------|
b|-77777111111111115151515151919191919~0-21-|
g|------------------------------------------|
d|------------------------------------------|
a|------------------------------------------|
e|------------------------------------------|

repeat verse and chorus then play bridge

bridge:                        repeat x4
e|------------------------|---------------------------------|-----|
b|-6-----6-6-6-6-6-6-6-6--|*4-4-4-4-2-2-2-2-6-6-6-6-1-1-1-4*|-----|
g|-6------6-6-6-6-6-6-6-6-|-6-6-6-6-2-2-2-2-6-6-6-6-1-1-1-4-|-6---|
d|------------------------|-6-6-6-6-4-4-4-4-8-8-8-8-3-3-3-6-|-6-6-|
a|------------------------|*4-4-4-4-4-4-4-4-8-8-8-8-3-3-3-6*|-4-6-|
e|------------------------|-4-4-4-4-2-2-2-2-6-6-6-6-1-1-1-4-|---4-|

e|------------------------------------|
b|----------------------------------4-|
g|---6--65----------6---6--65-------6-|
d|--6-6---6---6--4-6---6-6---6---6--6-|
a|-4---4-----4--4-----4---4-----4---4-|
e|----------6--2---------------6--2-4-|

chorus #2:     (repeat 6 times)   (only play on repeats 1-5)
e|-------------------------------|-----|
b|-4-4-4-4-4-4-4-4-6-6-6-6-2-2-2-|--4--|
g|-6-6-6-6-4-4-4-4-6-6-6-6-2-2-2-|--4--|
d|-6-6-6-6-6-6-6-6-8-8-8-8-4-4-4-|--6--|
a|-4-4-4-4-6-6-6-6-8-8-8-8-4-4-4-|--6--|
e|-4-4-4-4-4-4-4-4-6-6-6-6-2-2-2-|--4--|

after you play the 2nd chorus for the sixth time, you jump right into the outro.

outro:
e|-6-6-6-6-6---1-1-1-1-3-3---6-6-6-6-6---1~6-|
b|-6-6-6-6-6---1-1-1-1-3-3---6-6-6-6-6-------|
g|-6-6-6-6-6---1-1-1-1-3-3---6-6-6-6-6-------|
d|-8-8-8-8-8---3-3-3-3-5-5---8-8-8-8-8-------|
a|-8-8-8-8-8---3-3-3-3-5-5---8-8-8-8-8-------|
e|-6-6-6-6-6---1-1-1-1-3-3---8-8-8-8-8-------|

e|-6-6-6-6-6---1-1-1-1-3-3---6-6-6-6-6-|
b|-6-6-6-6-6---1-1-1-1-3-3---6-6-6-6-6-|
g|-6-6-6-6-6---1-1-1-1-3-3---6-6-6-6-6-|
d|-8-8-8-8-8---3-3-3-3-5-5---8-8-8-8-8-|
a|-8-8-8-8-8---3-3-3-3-5-5---8-8-8-8-8-|
e|-6-6-6-6-6---1-1-1-1-3-3---8-8-8-8-8-|
The End!
Tap to rate this tab
 
# A B C D E F G H I J K L M N O P Q R S T U V W X Y Z