Guitaretab - guitar tabs
Song name
# A B C D E F G H I J K L M N O P Q R S T U V W X Y Z

Anti-flag - Id Tell You But tab

-------------------------------------------------------------------------------
			     Id Tell you But - Anti-Flag
-------------------------------------------------------------------------------
Tabbed by: RavenKing2005
Email: ravenking2005@gmail.com

Tuning: Standard

INTRODUCTION
Lead Guitar
e|---------------------------------|
B|-7-7-0-0-7-7-0-0-7-7-0-0-4-5-7-2-|
G|---------------------------------|
D|---------------------------------| x1
A|---------------------------------|
E|---------------------------------|

e|---------------------|
B|-2-2-54202-2-5-4-5-7-|
G----------------------|
D|---------------------|	x3
A|---------------------|
E|---------------------|

e|---------------------------------|
B|-7-7-0-0-7-7-0-0-7-7-0-0-4-5-7-2-|
G|---------------------------------|
D|---------------------------------| x1
A|---------------------------------|
E|---------------------------------|

Rhythm Guitar
e|---------|
B|---------|
G|-6-------|
D|-6-2-7-9-|
A|-4-2-7-9-|
E|---0-5-7-|
VERSE

	Both Guitars
	e|---------|
	B|---------|
	G|-6-------|
	D|-6-2-7-9-|
	A|-4-2-7-9-|
	E|---0-5-7-|
       Pm|.    .   |   <---- listen to the song for timing!

PRE CHORUS

	e|----------------------------------|
	B|----------------------------------|
	G|-------------66444444444444-4-9/8-|
	D|-77777777777766444444444444-x-x/x-|
	A|-77777777777744222222222222-2-7/6-|
	E|-555555555555---------------------|


CHORUS				 first time	 2nd time
	e|-----------------|	|----------|	|------|
	B|-----------------|	|----------|	|------|
	G|-6666------------|x2	|--4-4-9-8-|	|------|
	D|-6666-2222-7777--|	|--4-x-x/x-|	|-7777-|
	A|-4444-2222-7777--|	|--2-2-7/6-|	|-7777-|
	E|------0000-5555--|	|----------|	|-5555-|


PRE SOLO

Lead Guitar
e|--------|
B|--------|
G|-6-9-14-|
D|-x-x-x--|
A|-4-7-12-|
E|--------|

Rhythm Guitar
e|-------|
B|-------|
G|-6-----|
D|-x-2-7-|
A|-4-2-7-|
E|---0-5-|

SOLO!!
[ Tab from: http://www.guitaretab.com/a/anti-flag/71274.html ]
E|-------------------------------------------------------------------------------------------------------|
B|-------9-------9-------9------9PH----------------------------------------------------------------------|
G|-11b13---11b13---11b13--11b13------11----11-----11--11--11-------13------13-----13-----13--11----------|
D|---------------------------------11----11-----11--11--11----11h13---11h13--11h13--11h13--------13p11---|
A|-------------------------------------------------------------------------------------------------------|
E|-------------------------------------------------------------------------------------------------------|

E|-------------------------------------------------------------------------------------------------|
B|-------------17-17---------------17-17------------------------17br-------17br------17br-----17br-|
G|-11---------------13-13-14-14----------13-13-14-14-16--------------------------------------------|
D|-----13p11--------------------14------------------------14-14------14-14-----14-14-----14-14-----|
A|-------------------------------------------------------------------------------------------------|
E|-------------------------------------------------------------------------------------------------|

E|----------------------------------------------------------|
B|----------------------------------------------------------|
G|-16-16-14-13----14--14-13---------------------------------|
D|-------------16-----------16--14--16---14----13--14----11-|
A|----------------------------------------------------------|
E|----------------------------------------------------------|



Solo backing
e|---------|
B|---------|
G|-6-------|
D|-6-2-7-9-|
A|-4-2-7-9-|
E|---0-5-7-|

BRIDGE

Rhythm Guitar
e|------------|
B|------------|
G|-6----4--8/9|
D|-x----x--x/x|	x4
A|-4----2--6/7|
E|------------|


<<>>



OUTRO

Lead Guitar
e|-----------|
B|-----------|
G|-6-9-14-13-|
D|-x-x-x--x--|	x2
A|-4-7-12-11-|
E|-----------|

Rhythm Guitar
e|-------|
B|-------|
G|-6-----|
D|-x-2-7-|
A|-4-2-7-|
E|---0-5-|

PLAY INTRO AGAIN

| /  slide up
| \  slide down
| h  hammer-on
| p  pull-off
| ~  vibrato
| +  harmonic
| x  Mute note
| PH Pinch harmonic
===============================================================================
Related for Id Tell You But tab