Song name
# A B C D E F G H I J K L M N O P Q R S T U V W X Y Z

Anti-flag - Hymn For The Dead tab

Legend
/= slide
()= ghost note
h= hammer on
p= pull off
.= palmmute
~= hold note

Intro
Lead
E|-----------------------------||----------------------------|
B|3-3-2-3-2-3-2-3-2-3-2-3-2----||3-3-2-3-2-3-2-3-2-3-2-3-2-5~|
G|--------------------------4-2||----------------------------|
D|-----------------------------||----------------------------|
A|-----------------------------||----------------------------|
E|-----------------------------||----------------------------|

E|-----------------------------||----------------|
B|3-3-2-3-2-3-2-3-2-3-2-3-2----||3-3-2-3-2-3-2---|
G|--------------------------4-2||--------------2~|
D|-----------------------------||----------------|
A|-----------------------------||----------------|
E|-----------------------------||----------------|

Rhythm
E|-----------------------------------|
B|-----------------------------------|
G|44444444------------------7777-----|
D|44444444-5555555555555555-7777-7777|x2
A|22222222-5555555555555555-5555-7777|
E|---------3333333333333333------5555|

Verse Part 1
E|---------------------------------|  |------------|
B|3-3-3332-3-3-3332-8-8-8-8--------|  |------------|
G|4-4-4442-4-4-4442-7-7-7-7--------|  |------------|
D|4-4-4442-4-4-4442-5-5-5-5-7-7----|x2|-55-55-55-55|
A|--------------------------5-5-7-7|  |-55-55-55-55|
E|------------------------------5-5|  |-33-33-33-33|

Verse Part 2
E|---------------||------------||5~---|
B|3-3-3-3-3-3-3-3||------------||5~---|
G|4-4-4-4-4-4-4-4||------------||4~---|
D|4-4-4-4-4-4-4-4||-55-55-55-55||2~---|
A|---------------||-55-55-55-55||-----|
E|---------------||-33-33-33-33||-----|

Chorus
E|-----------------------------------|
B|-----------------------------------|
G|44444444------------------7777-----|
D|44444444-5555555555555555-7777-7777|x2
A|22222222-5555555555555555-5555-7777|
E|---------3333333333333333------5555|

Bridge
Lead
E|-----------------------------||----------------------------|
B|3-3-2-3-2-3-2-3-2-3-2-3-2----||3-3-2-3-2-3-2-3-2-3-2-3-2-5~|
G|--------------------------4-2||----------------------------|
D|-----------------------------||----------------------------|
A|-----------------------------||----------------------------|
E|-----------------------------||----------------------------|

E|-----------------------------||----------------|
B|3-3-2-3-2-3-2-3-2-3-2-3-2----||3-3-2-3-2-3-2---|
G|--------------------------4-2||--------------2~|
D|-----------------------------||----------------|
A|-----------------------------||----------------|
E|-----------------------------||----------------|

Rhythm
E|-----------------------------------|
B|-----------------------------------|
G|44444444------------------7777-----|
D|44444444-5555555555555555-7777-7777|x2
A|22222222-5555555555555555-5555-7777|
E|---------3333333333333333------5555|

Verse Part 1
E|---------------------------------|  |------------|
B|3-3-3332-3-3-3332-8-8-8-8--------|  |------------|
G|4-4-4442-4-4-4442-7-7-7-7--------|  |------------|
D|4-4-4442-4-4-4442-5-5-5-5-7-7----|x2|-55-55-55-55|
A|--------------------------5-5-7-7|  |-55-55-55-55|
E|------------------------------5-5|  |-33-33-33-33|

Verse Part 2
E|---------------||------------||5~---|
B|3-3-3-3-3-3-3-3||------------||5~---|
G|4-4-4-4-4-4-4-4||------------||4~---|
D|4-4-4-4-4-4-4-4||-55-55-55-55||2~---|
A|---------------||-55-55-55-55||-----|
E|---------------||-33-33-33-33||-----|

Chorus
E|-----------------------------------|
B|-----------------------------------|
G|44444444------------------7777-----|
D|44444444-5555555555555555-7777-7777|x2
A|22222222-5555555555555555-5555-7777|
E|---------3333333333333333------5555|

Interlude
Rhythm
E|----------------------------------
B|----------------------------------
G|----------------------------------
D|555555555555-7777-9999999999999999
A|555555555555-7777-9999999999999999
E|333333333333-5555-7777777777777777

Lead
E|----------------------------------
B|--------------------33------335522
G|----------------------------------
D|----------------------------------
A|----------------------------------
E|----------------------------------

cont.

Rhythm
E|----------------------------------
B|----------------------------------
G|----------------------------------
D|555555555555-7777-9~--------------
A|555555555555-7777-9~--------------
E|333333333333-5555-7~--------------

Interlude Continued
E|--------2-----------------------2-------------0|
B|----------3-----------3-----3-----3---------2--|
G|----4-------4-------0-----2---2-----2-----2----|
D|--4---4-----------0-----0---------------2------|x2
A|2---------------2---------------------0--------|
E|--------------3--------------------------------|

Rhythm(2nd Time)
E|-----------------------------------------------|
B|-----------------------------------------------|
G|4~----------------------7~---------------------|
D|4~------------5~--------7~------------7~-------|
A|2~------------5~--------5~------------7~-------|
E|--------------3~----------------------5~-------|

Trumpet Fill(Thanks To The CSharpMasters Guitar Pro Tab)
E|7~----------------------10~--------------------|
B|--------------8~----------------------10~------|
G|-----------------------------------------------|
D|-----------------------------------------------|
A|-----------------------------------------------|
E|-----------------------------------------------|

Trumpet Solo
Rhythm
E|-----------------------------------|
B|-----------------------------------|
G|-----------------------------------|
D|44444444----------77777777---------|
A|22222222-55555555-55555555-77777777|
E|---------33333333----------55555555|
  ........ ........ ........ ........

Trumpet Fill(Thanks To The CSharpMasters Guitar Pro Tab)
E|1010-10-10-9----1010-10-10-9----1010-10-10-9---|
B|-------------12--------------10----------------|
G|--------------------------------------------11~|
D|-----------------------------------------------|
A|-----------------------------------------------|
E|-----------------------------------------------|

E|---------------14h15p14-14---------------|
B|15-15-15-14-14-------------17-15~-14-12~-|
G|-----------------------------------------|
D|-----------------------------------------|
A|-----------------------------------------|
E|-----------------------------------------|

Next Part of Interlude
Lead
E|--------------------------------|
B|--3322----3322----3322----332255|
G|44----4444----4444----4444------|
D|--------------------------------|x2
A|--------------------------------|
E|--------------------------------|
  ................................

E|-----------------------------||----------------------------|
B|3-3-2-3-2-3-2-3-2-3-2-3-2----||3-3-2-3-2-3-2-3-2-3-2-3-2-5~|
G|--------------------------4-2||----------------------------|
D|-----------------------------||----------------------------|
A|-----------------------------||----------------------------|
E|-----------------------------||----------------------------|
  . . . . . . . . . . . . . . .   . . . . . . . . . . . . . .

E|--------------------------------|
B|3-3-3332-3-3-3332-3-3-2-3-2-3-2~|
G|4-4-4442-4-4-4442---------------|
D|4-4-4442-4-4-4442---------------|
A|--------------------------------|
E|--------------------------------|

Rhythm
E|---------------------------------|
B|---------------------------------|
G|4----------------7---------------|
D|4-444444-------5-7-777777-------7|x4
A|2-222222-5555555-5-555555-7777777|
E|---------3333333----------5555555|
    ...... ......    ...... ......

Changed up rhythm
E|-----------------------------------||----------------------------|
B|-----------------------------------||----------------------------|
G|4------4----------7------7---------||4----------------7----------|
D|4-444444-5------5-7-777777-7------7||4-444444-------5-7-777777-7~|
A|2-222222-5-555555-5-555555-7-777777||2-222222-5555555-5-555555-7~|
E|---------3-333333----------5-555555||---------3333333----------5~|
    .....    .....    .....    .....

Chorus
E|-----------------------------------|
B|-----------------------------------|
G|44444444------------------7777-----|
D|44444444-5555555555555555-7777-7777|x4
A|22222222-5555555555555555-5555-7777|
E|---------3333333333333333------5555|

Lead comes in 3rd time
E|-----------------------------||----------------------------|
B|3-3-2-3-2-3-2-3-2-3-2-3-2----||3-3-2-3-2-3-2-3-2-3-2-3-2-5~|
G|--------------------------4-2||----------------------------|
D|-----------------------------||----------------------------|x2
A|-----------------------------||----------------------------|
E|-----------------------------||----------------------------|

Ending
E|------------------|
B|3~----2~---(2)/3-0|
G|------------------|
D|------------------|
A|------------------|
E|------------------|

Rhythm ending
E|-----|
B|-----|
G|4~---|
D|4~---|
A|2~---|
E|-----|
Tap to rate this tab
# A B C D E F G H I J K L M N O P Q R S T U V W X Y Z