Guitaretab - guitar tabs
Song name
# A B C D E F G H I J K L M N O P Q R S T U V W X Y Z

Anti-flag - We Dont Need It tab

- Anti-Flag - We Don't Need It
- Tabbed by: Pacu, bassist from a brazilian punk rock band called PunkAss.
- Listen to the song to get it right...its easy. Enjoy.

______________


Intro 
e|------------------------------------------------------------------|
B|------------------------------------------------------------------|
G|-6-6-66-6-6-66--------------------6-6-66-6-6-66-------------------|
D|-666666-666666-66666666-44444444--666666-666666-66666666-44444444-|
A|-464644-464644-66666666-44444444--464644-464644-66666666-44444444-|
E|--4-4----4-4---44444444-22222222---4-4----4-4---44444444-22222222-|

e|------------------------------------------------------------------|
B|---------------9~-----7-6~-----9--14~-----------9~-----7-6~-----7-|
G|------------------------------------------------------------------|
D|------------------------------------------------------------------|
A|------------------------------------------------------------------|
E|------------------------------------------------------------------|

Verse
e|-----------------------------------------------------------|
B|-----------------------------------------------------------|
G|-6~---------------------------6~---------------------------|
D|-6~--------66666666-44444444--6~---------66666666-44444444-|
A|-4~--------66666666-44444444--4~---------66666666-44444444-|
E|-----------44444444-22222222-------------44444444-22222222-|

e|-----------------------------------------------------------|
B|-----6-----9~-----7-6~-----9--14~--------9~-----7-6~-----7-|
G|-6~----6~--------------------------------------------------|
D|-----------------------------------------------------------|
A|-----------------------------------------------------------|
E|-----------------------------------------------------------|

Chorus
e|-------------------------------------------------------------------|
B|-------------------------------------------------------------------|
G|-66--------11---11--66--------11---11--66-----11111111111111111111-|
D|-668866--11---11----668866--11---11----668866-11111111111111111111-|
A|-448866-9----9------448866-9----9------448866--9-9-9-9-9-9-9-9-9-9-|
E|---6644---------------6644---------------6644----------------------|

e|-------------------------------------------------------------------|
B|-1414~~-------------1414~~-------------1414~~----------------------|
G|-------------------------------------------------------------------|
D|-------------------------------------------------------------------|
A|-------------------------------------------------------------------|
E|-------------------------------------------------------------------|

Intro
Verse

Chorus
e|---------------------------------------------------------|
B|---------------------------------------------------------|
G|-66--------11---11--66--------11---11--66-----1111111111-|
D|-668866--11---11----668866--11---11----668866-1111111111-|
A|-448866-9----9------448866-9----9------448866--9-9-9-9-9-|
E|---6644---------------6644---------------6644------------|



e|-------------------------------------------------------------------|
B|-1414~~-------------1414~~-------------1414~~----------------------|
G|-------------------------------------------------------------------|
D|-------------------------------------------------------------------|
A|-------------------------------------------------------------------|
E|-------------------------------------------------------------------|

Bridge I 
e|------------------------------------------------------|
B|------------------------------------------------------|
G|------------------------------------------------------|
D|-66666666--4-4-4-4-4-4-4-4-66666666--4--4-4-4-4--4-|
A|-66666666--4-4-4-4-4-4-4-4-66666666--4--4-4-4--4--4-|
E|-44444444--2-2-2-2-2-2-2-2-44444444--2--2--2--2--2--2-|
[ Tab from: http://www.guitaretab.com/a/anti-flag/76519.html ]
e|------------------------------------------------------|
B|------------------------------------------------------|
G|----------1111111111111111----------11-11-11-11-11-11-|
D|-66666666-1111111111111111-66666666-11-11-11-11-11-11-|
A|-66666666--9-9-9-9-9-9-9-9-66666666--9--9--9--9--9--9-|
E|-44444444------------------44444444-------------------|

Bridge II [both guitars play that]
e|-------------|------|
B|-------------|------|
G|-6~----------|------|
D|-6~-8~-6~-4~-|-[2x]-|
A|-4~-8~-6~-4~-|------|
E|----6~-4~-2~-|------|

Bridge III [both guitars play that]
e|-------------------------------------|------|
B|-------------------------------------|------|
G|-66666666----------------------------|------|
D|-66666666-88888888-66666666-44444444-|-[2x]-|
A|-44444444-88888888-66666666-44444444-|------|
E|----------66666666-44444444-22222222-|------|
   ******** ******** ******** ********

Bridge IV [both guitars play that]
e|-----------------------------------|
B|-----------------------------------|
G|-6-6-6666--------------------------|
D|-6-6-6666-8-8-8-8-6-6-6666-4-4-4-4-|
A|-4-4-4444-8-8-8-8-6-6-6666-4-4-4-4-|
E|----------6-6-6-6-4-4-4444-2-2-2-2-|
   * * ****         * * ****

Bridge V [both guitars play that]
e|------------------------------------|
B|------------------------------------|
G|-6-6-6666---------------------------|
D|-6-6-6666-8-8-8-8-66666666-44444444-|
A|-4-4-4444-8-8-8-8-66666666-44444444-|
E|----------6-6-6-6-44444444-22222222-|
   * * ****         ******** ********
Guitar Solo
e|---------------------------------------------------------------|
B|---------------------------------------------------------------|
G|-66666-------------1111111111--66666----------------1111111111-|
D|-66666-88888-66666-1111111111--66666--88888--66666--1111111111-|
A|-44444-88888-66666--9-9-9-9-9--44444--88888--66666---9-9-9-9-9-|
E|-------66666-44444--------------------66666--44444-------------|

e|---------------------------------------------------------------|
B|-------9---7-6~-----7-6--------141412-141412-141618-16/14-12~--|
G|-6~------------------------------------------------------------|
D|---------------------------------------------------------------|
A|---------------------------------------------------------------|
E|---------------------------------------------------------------|

Guitar Solo Continuation
e|---------------------------------------------------|
B|---------------------------------------------------|
G|-6-6---------1111111111--6-6-----------------------|
D|-6-6-8-8-6-6-1111111111--6-6-8-8-66666666-44444444-|
A|-4-4-8-8-6-6--9-9-9-9-9--4-4-8-8-66666666-44444444-|
E|-----6-6-4-4-----------------6-6-44444444-22222222-|

e|---------------|------|
B|-14-9-6-9-6----|------|
G|------------6~-|------|
D|---------------|-[4x]-|
A|---------------|------|
E|---------------|------|

Last Chorus
e|-----------------------------------------------------------|
B|-----------------------------------------------------------|
G|-66666-------------1111111111-66666-------------1111111111-|
D|-66666-88888-66666-1111111111-66666-88888-66666-1111111111-|
A|-44444-88888-66666--9-9-9-9-9-44444-88888-66666--9-9-9-9-9-|
E|-------66666-44444------------------66666-44444------------|

e|-----------------------------------------------------------|
B|------------------------------1414~~-----------------------|
G|-----------------------------------------------------------|
D|-----------------------------------------------------------|
A|-----------------------------------------------------------|
E|-----------------------------------------------------------|

e|----------------------------------------|
B|----------------------------------------|
G|-66666-------------11111111111111111111-|
D|-66666-88888-66666-11111111111111111111-|
A|-44444-88888-66666--9-9-9-9-9-9-9-9-9-9-|
E|-------66666-44444----------------------|

e|----------------------------------------|
B|-1414~~---------------------------------|
G|----------------------------------------|
D|----------------------------------------|
A|----------------------------------------|
E|----------------------------------------|

Ending
e|---|
B|---|
G|-6-|
D|-6-|
A|-4-|
E|---|



Related for We Dont Need It tab