Song name
# A B C D E F G H I J K L M N O P Q R S T U V W X Y Z

Anti-flag - No Paradise tab

Help us improve GuitareTab! Take a short survey!
Anti-Flag
No Paradise
standard tuning

Intro
|---------|
|---------|
|-7~7~7~7~|
|-7~7~7~7~|
|-5~5~5~5~|
|---------|

Verse 1
|-------------------------------------------------------|
|-------------------------------------------------------|
|-777777777777------------------------------777777777777|
|-777777777777-99999999999-777777-5555-7777-777777777777|x2
|-555555555555-99999999999-777777-5555-7777-555555555555|
|--------------77777777777-555555-3333-5555-------------|
1 ............ .......  .  ...... .... .... ........
2 ............ .......  .  ...... .... .... ............

Pre-Chorus
|----------------------------------------------------------|
|----------------------------------------------------------|
|-777777777777-------------------------------------77777777|
|-777777777777-99999999-77777777-55555555-77777777-77777777|
|-555555555555-99999999-77777777-55555555-77777777-55555555|
|--------------77777777-55555555-33333333-55555555---------|
  ............ ........ ........ ........ ........ ........

|----------|
|----------|
|-77777777-|
|-77777777-|
|-55555555-|
|----------|

Chorus
|----------------------------------|
|----------------------------------|
|7-77-7-7-7-7----------------------|
|7-77-7-7-7-7-9-99/7-77/5-5-5-5-5-5|x3
|5-55-5-5-5-5-9-99/7-77/5-5-5-5-5-5|
|-------------7-77/5-55/3-3-3-3-3-3|

|------------------------------------|
|------------------------------------|
|---------------------------77777777-|
|-7777777777777777-55555555-77777777-|
|-7777777777777777-55555555-55555555-|
|-5555555555555555-33333333----------|


Post-Chorus Lead x2
|---------1010-----------1010--------------------------------|
|-88-77-------1010-88-77------1010-88-77-1010-77-88-77-55----|
|---------------------------------------------------------66-|
|------------------------------------------------------------|
|------------------------------------------------------------|
|------------------------------------------------------------|

Post Chorus Rhythm x2
|-------------|
|-------------|
|-------------|
|-7-----------|
|-5(x16)9(x16)|
|-------7-----|

Verse 2
|-------------------------|
|-------------------------|
|-7~-7~----------7~-(7-77)|
|-7~-7~-9~-7~-5~-7~-(7-77)|x2
|-5~-5~-9~-7~-5~-5~-(5-55)|
|-------7~-5~-3~----------|

Pre-Chorus
|----------------------------------------------------------|
|----------------------------------------------------------|
|-777777777777-------------------------------------77777777|
|-777777777777-99999999-77777777-55555555-77777777-77777777|
|-555555555555-99999999-77777777-55555555-77777777-55555555|
|--------------77777777-55555555-33333333-55555555---------|
  ............ ........ ........ ........ ........ ........

|----------|
|----------|
|-77777777-|
|-77777777-|
|-55555555-|
|----------|

Chorus
|----------------------------------|
|----------------------------------|
|7-77-7-7-7-7----------------------|
|7-77-7-7-7-7-9-99/7-77/5-5-5-5-5-5|x3
|5-55-5-5-5-5-9-99/7-77/5-5-5-5-5-5|
|-------------7-77/5-55/3-3-3-3-3-3|

|------------------------------------|
|------------------------------------|
|---------------------------77777777-|
|-7777777777777777-55555555-77777777-|
|-7777777777777777-55555555-55555555-|
|-5555555555555555-33333333----------|


Post-Chorus Lead x2
|---------1010-----------1010--------------------------------|
|-88-77-------1010-88-77------1010-88-77-1010-77-88-77-55----|
|---------------------------------------------------------66-|
|------------------------------------------------------------|
|------------------------------------------------------------|
|------------------------------------------------------------|

Post Chorus Rhythm x2
|-------------|
|-------------|
|-------------|
|-7-----------|
|-5(x16)9(x16)|
|-------7-----|

Bridge? Rhythm
|--------------------------feedback--------------|
|--------------------------feedback--------------|
|-7~-7\9/7-7\9\11-7\9/7-7~-feedback------------7~|
|-----------------------7~-feedback------------7~|
|-5~-5\7/5-5\7\9--5\7/5-5~-feedback-pickscrape-5~|
|--------------------------feedback-<<<<<<<<<<---|


Lead
|5--------|
|--7------|
|----7----|
|------7--|
|--------5|
|---------|

Altered Pre-Chorus
|----------------------------------|
|----------------------------------|
|-77777777----------------77777777-|
|-77777777-9999-7777-5555-77777777-|
|-55555555-9999-7777-5555-55555555-|
|----------7777-5555-3333----------|
  ........ .... .... ....

Chorus
|----------------------------------|
|----------------------------------|
|7-77-7-7-7-7----------------------|
|7-77-7-7-7-7-9-99/7-77/5-5-5-5-5-5|x4
|5-55-5-5-5-5-9-99/7-77/5-5-5-5-5-5|
|-------------7-77/5-55/3-3-3-3-3-3|

Ending
|---------|
|---------|
|-7~7~7~7~|
|-7~7~7~7~|
|-5~5~5~5~|
|---------|

~=hold note
.=palmute
/\=slider down/up
()=1st time only
<<<<=pickscrape
Related for No Paradise tab