Song name
# A B C D E F G H I J K L M N O P Q R S T U V W X Y Z

Anti-flag - War Sucks Lets Party tab

Band: Anti-Flag
Album: For blood and empire
song: war sucks lets party

For this song there is no intro on guitar
guitar starts when the verse starts

verse 1 (play 4 times)
e|--5-5--4-4--4-4-4-4-----|
B|--5-5--5-5--4-4-4-4-----|
G|--6-6--4-4--4-4-4-4-----|
D|------------------------|
A|------------------------|
E|------------------------|

pre-chorus
e|--5-5-5-5-5-5-5-5-5-5-5-5--7-7-7-7-7-7-7-7--|
B|--5-5-5-5-5-5-5-5-5-5-5-5--7-7-7-7-7-7-7-7--|
G|--6-6-6-6-6-6-6-6-6-6-6-6--8-8-8-8-8-8-8-8--|
D|--7-7-7-7-7-7-7-7-7-7-7-7--9-9-9-9-9-9-9-9--|
A|--7-7-7-7-7-7-7-7-7-7-7-7--9-9-9-9-9-9-9-9--|
E|--5-5-5-5-5-5-5-5-5-5-5-5--7-7-7-7-7-7-7-7--|


Chorus
e|-4-4-4-4-4-4-4-4-5-5-5-5-5-5-5-5-4-4-4-4-4-4-4-4-5-5-5-5-5-5-5-5-|
B|-5-5-5-5-5-5-5-5-5-5-5-5-5-5-5-5-5-5-5-5-5-5-5-5-5-5-5-5-5-5-5-5-|
G|-6-6-6-6-6-6-6-6-6-6-6-6-6-6-6-6-6-6-6-6-6-6-6-6-6-6-6-6-6-6-6-6-|
D|-6-6-6-6-6-6-6-6-7-7-7-7-7-7-7-7-6-6-6-6-6-6-6-6-7-7-7-7-7-7-7-7-|
A|-4-4-4-4-4-4-4-4-7-7-7-7-7-7-7-7-4-4-4-4-4-4-4-4-7-7-7-7-7-7-7-7-|
E|-----------------5-5-5-5-5-5-5-5-----------------5-5-5-5-5-5-5-5-|

e|-2-2-2-2-2-2-2-2--5-5-5-5--7-7-7-7--|
B|-2-2-2-2-2-2-2-2--5-5-5-5--7-7-7-7--|
G|-3-3-3-3-3-3-3-3--6-6-6-6--8-8-8-8--|
D|-4-4-4-4-4-4-4-4--7-7-7-7--9-9-9-9--|
A|-4-4-4-4-4-4-4-4--7-7-7-7--9-9-9-9--|
E|-2-2-2-2-2-2-2-2--5-5-5-5--7-7-7-7--|

pre-verse
e|------9------9---------9------9----|
B|--9-9---9--9---9---9-9---9--9---9--|
G|-----------------------------------|
D|-----------------------------------|
A|-----------------------------------|
E|-----------------------------------|

verse 2 (play 4 times)
e|--5-5--4-4--4-4-4-4-----|
B|--5-5--5-5--4-4-4-4-----|
G|--6-6--4-4--4-4-4-4-----|
D|------------------------|
A|------------------------|
E|------------------------|

pre-chorus
e|--5-5-5-5-5-5-5-5-5-5-5-5--7-7-7-7-7-7-7-7--|
B|--5-5-5-5-5-5-5-5-5-5-5-5--7-7-7-7-7-7-7-7--|
G|--6-6-6-6-6-6-6-6-6-6-6-6--8-8-8-8-8-8-8-8--|
D|--7-7-7-7-7-7-7-7-7-7-7-7--9-9-9-9-9-9-9-9--|
A|--7-7-7-7-7-7-7-7-7-7-7-7--9-9-9-9-9-9-9-9--|
E|--5-5-5-5-5-5-5-5-5-5-5-5--7-7-7-7-7-7-7-7--|


Chorus
e|-4-4-4-4-4-4-4-4-5-5-5-5-5-5-5-5-4-4-4-4-4-4-4-4-5-5-5-5-5-5-5-5-|
B|-5-5-5-5-5-5-5-5-5-5-5-5-5-5-5-5-5-5-5-5-5-5-5-5-5-5-5-5-5-5-5-5-|
G|-6-6-6-6-6-6-6-6-6-6-6-6-6-6-6-6-6-6-6-6-6-6-6-6-6-6-6-6-6-6-6-6-|
D|-6-6-6-6-6-6-6-6-7-7-7-7-7-7-7-7-6-6-6-6-6-6-6-6-7-7-7-7-7-7-7-7-|
A|-4-4-4-4-4-4-4-4-7-7-7-7-7-7-7-7-4-4-4-4-4-4-4-4-7-7-7-7-7-7-7-7-|
E|-----------------5-5-5-5-5-5-5-5-----------------5-5-5-5-5-5-5-5-|

e|-2-2-2-2-2-2-2-2--5-5-5-5--7-7-7-7--|
B|-2-2-2-2-2-2-2-2--5-5-5-5--7-7-7-7--|
G|-3-3-3-3-3-3-3-3--6-6-6-6--8-8-8-8--|
D|-4-4-4-4-4-4-4-4--7-7-7-7--9-9-9-9--|
A|-4-4-4-4-4-4-4-4--7-7-7-7--9-9-9-9--|
E|-2-2-2-2-2-2-2-2--5-5-5-5--7-7-7-7--|


outro (play 4 times)
e|-4-4-4-4-4-4-4-4-2-2-2-2-2-2-2-2--|
B|-5-5-5-5-5-5-5-5-2-2-2-2-2-2-2-2--|
G|-6-6-6-6-6-6-6-6-3-3-3-3-3-3-3-3--|
D|-6-6-6-6-6-6-6-6-4-4-4-4-4-4-4-4--|
A|-4-4-4-4-4-4-4-4-4-4-4-4-4-4-4-4--|
E|-----------------2-2-2-2-2-2-2-2--|
Tap to rate this tab
 
# A B C D E F G H I J K L M N O P Q R S T U V W X Y Z