Song name
# A B C D E F G H I J K L M N O P Q R S T U V W X Y Z

Anti-flag - Rotten Future tab

Anti-Flag
"Rotten Future"
Die For The Government (1996)
Guitar tab by iixnay 

this is the first guitar tab of this song, enjoy 
I know the end of the riff is not 100% correct but the tab sounds good

Intro
E|----------------------------------------------------|
B|----------------------------------------------------|
G|--8~----8~----8~----8~------------------------------|
D|--8~----8~----8~----8~-----then-pick-slide----------|
A|--6~----6~----6~----6~------------------------------|
E|----------------------------------------------------|

E|----------------------------------------------------|
B|----------------------------------------------------|
G|--8-8--8-4-4-6-6--8-8--8-4-4-6-6--------------------|
D|--8-8--8-4-4-6-6--8-8--8-4-4-6-6--------------------|
A|--6-6--6-2-2-4-4--6-6--6-2-2-4-4--------------------|
E|----------------------------------------------------|

Riff
E|----------------------------------------------------|
B|----------------------------------------------------|
G|----------------------------------------------------|
D|---------------------------9p8p6--------------------|
A|--6-8-9-8-6-4---4--6-8-9-8-------9------------------|
E|--------------4-------------------------------------|

Verse
E|----------------------------------------------------|
B|----------------------------------------------------|
G|--8-------8-----------------------------------------|
D|------8-------8-------------------------------------|
A|----6---6---6---6-----------------------------------|
E|----------------------------------------------------|

Chorus
E|----------------------------------------------------|
B|----------------------------------------------------|
G|--8-8-11-11-----------------------------------------|
D|--8-8-11-11--8-8-11-11------------------------------|
A|--6-6--9--9--8-8-11-11------------------------------|
E|-------------6-6--9--9------------------------------|

Bridge
E|------------------------------------------------------------------|
B|------------------------------------------------------------------|
G|--8-8--8-4-4-6-6--8-8--8-4-4-6-6--8-8--8-4-4-6-6--8-8--8-4-4-6-6--|
D|--8-8--8-4-4-6-6--8-8--8-4-4-6-6--8-8--8-4-4-6-6--8-8--8-4-4-6-6--|
A|--6-6--6-2-2-4-4--6-6--6-2-2-4-4--6-6--6-2-2-4-4--6-6--6-2-2-4-4--|
E|------------------------------------------------------------------|

E|-------------------------------------------------------|
B|-------------------------------------------------------|
G|-------------------------------------------------------|
D|----8---8---4---6---8---8---4---6---8---8---4---6------|
A|--6---6---2---4---6---6---2---4---6---6---2---4--------|
E|-------------------------------------------------------|

E|--------------------------------------------------|
B|--------------------------------------------------|
G|--8888-444-666------------------------------------|
D|--8888-444-666------------------------------------|
A|--6666-222-444------------------------------------|
E|--------------------------------------------------|
    \   P.M.   /


Intro
Riff
Verse X4
Chorus X4
Riff X2
Verse X4
Chorus X4
Riff X2
Bridge
Chorus X2


That's all ! any comments, email me at spring84@hotmail.fr ;)
Tap to rate this tab
# A B C D E F G H I J K L M N O P Q R S T U V W X Y Z