Song name
# A B C D E F G H I J K L M N O P Q R S T U V W X Y Z

Anti-flag - State Funeral tab

Anti-Flag
State Funeral

I give a good majority of the credit to swampmonkey because most of the bass parts were 
of the power chords used in this song.
the lead was kind of hard to figure out and im not quite sure if its right
or not.

Legend
*= play multiple times
x= mute
~= hold
>= pick scraping
/= slide up
.= palm mute

Intro
E|----|
B|----|
G|----|
D|----|
A|-4-2|
E|-2-0|

E|--|
B|--|
G|--|
D|--|this chord is played through the rest of the intro before the vocals
A|4*|start
E|2*|

Pre-Verse
E|---------------------------------------------|
B|---------------------------------------------|
G|---------------------------------------------|
D|---------------------------------------------|
A|333333333333333333333333333333333333333333333|
E|111111111111111111111111111111111111111111111|
       this is the sound of a dropping bomb
(probably not the right count, but should start and end a little before
and after.)

Verse Rhythm x2
E|----------------|  |--------|
B|----------------|  |--------|
G|------------6666|  |--------|
D|33x3xx-6666-6666|x3|8888-666|
A|33x3xx-6666-4444|  |8888-666|
E|11x1xx-4444-----|  |6666-444|

Verse Lead x2
E|----------------|  |--------|
B|----------------|  |--------|
G|-------8888-6666|  |--------|
D|33x3xx-xxxx-xxxx|x3|8888-666|
A|33x3xx-6666-4444|  |8888-666|
E|11x1xx----------|  |6666-444|

Chorus
E|--------------------------|  |----------|
B|--------------------------|  |----------|
G|--------------------------|  |----------|
D|6666----------------------|x3|6-6~------|
A|4444-6666-3333333333333333|  |4-4~6-6~3~|
E|-----4444-1111111111111111|  |----4-4~1~|

Pre-Verse 2 Rhythm
E|------------------------------0~--------------|
B|------------------------------0~--------------|
G|------------------------------0~--------------|
D|-----------3-3------------3-3-3~--3-3-3-------|
A|-----------3-3------------3-3-3~--3-3-3-------|
E|-----------1-1------------1-1-1~--1-1-1-------|

Pre-Verse 2 Lead
E|----------------------------------------------|
B|--------------->>>->>>->>>--------------------|
G|--------------->>>->>>->>>------------6-------|
D|------------------------------------6---------|
A|----------------------------------4-----------|
E|>>>->>>->>>----------------------------->>>>>>|

Verse Rhythm x1
E|----------------|  |------------|
B|----------------|  |------------|
G|------------6666|  |------------|
D|33x3xx-6666-6666|x3|8888-666----|
A|33x3xx-6666-4444|  |8888-666----|
E|11x1xx-4444-----|  |6666-444----|

Verse Lead x1
E|----------------|  |------------|
B|----------------|  |6h8p6-----/8|
G|-------8888-6666|  |-----6p4~---|
D|33x3xx-xxxx-xxxx|x3|------------|
A|33x3xx-6666-4444|  |------------|
E|11x1xx----------|  |------------|

Chorus
E|--------------------------|  |----------|
B|--------------------------|  |----------|
G|--------------------------|  |----------|
D|6666----------------------|x3|6-6~------|
A|4444-6666-3333333333333333|  |4-4~6-6~3~|
E|-----4444-1111111111111111|  |----4-4~1~|

Pre-Outro
E|------------|
B|------------|
G|------------|
D|333333333333|
A|333333333333|
E|111111111111|
pm .. .. .. .

Outro
E|--------------|
B|--------------|
G|------------88|
D|33355566688888|x5
A|33355566688866|
E|111333444666--|

end on
E|--------0~|
B|--------0~|
G|--------0~|
D|----------|
A|////<<<<--|slide up the neck while pickscraping
E|////<<<<--|
Tap to rate this tab
 
# A B C D E F G H I J K L M N O P Q R S T U V W X Y Z