Song name
# A B C D E F G H I J K L M N O P Q R S T U V W X Y Z

Anti-flag - Fuck The Flag tab

Fuck The Flag
Anti-Flag
The Terror State

------------------------------|
---------------------------8b-| (half bend)
-88-8----66-6----88-8----6----|
-88-899-966-666-688-899-96----|
-66-699-944-466-666-699-94----|
-----77-7----44-4----77-7-----|

----------------------------------|
----------------------------------|
-88-8----66-6----88-8----66-61111-|
-88-899-966-666-688-899-966-61111-|
-66-699-944-466-666-699-944-41010-|
-----77-7----44-4----77-7---------|
Brainwashing piece of rag. Take it off mast, and stick it up your ass.

---------------------------|
---------------------------|
-88-8----66-6----88-8----6-|
-88-899-966-666-688-899-96-|
-66-699-944-466-666-699-94-|
-----77-7----44-4----77-7--|
Now it's time to slaughter, in its fucking honor.

What a bunch of fucking shit!

-----------------             -------------------|
-----------------             -------------------|
---------88-688-6             -------------------|
-44-466-688-688-6 x3          -44444444-66666666-|
-44-466-666-466-4             -44444444-66666666-|
-22-244-4--------             -22222222-44444444-|
Fuck the flag and fuck you!   Fuck the flag, fuck the flag, fuck the flag!

------------------|
------------------|
----------8-8-6-8-|
-44-466-6-8-8-6-8-|
-44-466-6-6-6-4-6-|
-22-244-4---------|
Fuck the flag and fuck you!

--------------------------------|
--------------------------------|
--------------------------------|
-44-444-444-444-444-444-444-444-|
-44-444-444-444-444-444-444-444-|
-22-222-222-222-222-222-222-222-|
 ** *** *** *** *** *** *** ***
        Here’s the flag. Take this match

-----------------------------|
-----------------------------|
-----------------------------|
-444-444-444-444-444-444-444-|
-444-444-444-444-444-444-444-|
-222-222-222-222-222-222-222-|
 *** *** *** *** *** (*)     (lessen the palm mute fairly quickly)
         Burn that fucker!

-----------------           ------------------|
-----------------           ------------------|
---------88-688-6           ----------8-8-6-8-|
-44-466-688-688-6 x3        -44-466-6-8-8-6-8-|
-44-466-666-466-4           -44-466-6-6-6-4-6-|
-22-244-4--------           -22-244-4---------|
Fuck the flag and fuck you! Fuck the flag and fuck you, you fucking asshole!
Tap to rate this tab
# A B C D E F G H I J K L M N O P Q R S T U V W X Y Z