Song name
# A B C D E F G H I J K L M N O P Q R S T U V W X Y Z

Anti-flag - The Wto Kills Farmers tab

The WTO Kills Farmers
Nobody has tabbed it yet so here it is

Leave corrections in the comments and I will edit them into the tab
especially if you have that part im not sure about.

Intro

E|11-1-22-4|
B|22-1-22-4|
G|33-2-33-5|
D|33-3-44-6|x3
A|11-3-44-6|
E|---1-22-4|

E|11-1-1-1-1-1-1-1-1|
B|22-1-2-2-2-2-2-2-2|
G|33-2-3-3-3-3-3-3-3|
D|33-3-3-3-3-3-3-3-3|
A|11-3-1-1-1-1-1-1-1|
E|---1--------------|

Verse

E|11-1-22-4|
B|22-1-22-4|
G|33-2-33-5|
D|33-3-44-6|x3
A|11-3-44-6|
E|---1-22-4|

E|11-1-1-1-1-1-1-1-1|
B|22-1-2-2-2-2-2-2-2|
G|33-2-3-3-3-3-3-3-3|
D|33-3-3-3-3-3-3-3-3|
A|11-3-1-1-1-1-1-1-1|
E|---1--------------|

Pre-Chorus

E|2~---1~---|
B|2~---1~---|
G|3~---2~---|
D|4~---3~---|
A|4~---3~---|
E|2~---1~---|

Chorus

E|-----------------------------------|
B|-----------------------------------|
G|33333333---------------------------|
D|33333333-33333333-44444444-66666666|x2
A|11111111-33333333-44444444-66666666|
E|---------11111111-22222222-44444444|

Chorus Part 2
Guitar 1
E|-----1--------1--------2--------4--|
B|------2--------1--------2--------4-|
G|3333---3--------2--------3--------5|
D|3333-----3333-----4444-----6666----|
A|1111-----3333-----4444-----6666----|
E|---------1111-----2222-----4444----|
Guitar 2                             |
E|-----------------------------------|
B|-----------------------------------|
G|33333333---------------------------|
D|33333333-33333333-44444444-66666666|
A|11111111-33333333-44444444-66666666|
E|---------11111111-22222222-44444444|

Chorus Part 3
E|--------------------1---1---1---1---1---1---2---3|
B|--------------------2---2---2---2---1---1---2---3|
G|33333333----------3-3-3-3-3-3-3-3---2---2---3---4|
D|33333333-33333333-3-3-3-3-3-3-3-3-3-3-3-3-4-4-6-6|
A|11111111-33333333-1-1-1-1-1-1-1-1-3-3-3-3-4-4-6-6|
E|---------11111111-----------------1-1-1-1-2-2-4-4|

Post-Chorus
E|1~1---1~----2~2---4~-------|
B|2~-2--1~----2~-2--4~-------|
G|3~--3-2~----3~----5~----6-5|
D|3~----3~----4~----6~----6-5|
A|1~----3~----4~----6~----4-3|
E|------1~----2~----4~-------|

Verse 2- x2

E|11-1-22-4|
B|22-1-22-4|
G|33-2-33-5|
D|33-3-44-6|x3
A|11-3-44-6|
E|---1-22-4|

E|11-1-1-1-1-1-1-1-1|
B|22-1-2-2-2-2-2-2-2|
G|33-2-3-3-3-3-3-3-3|
D|33-3-3-3-3-3-3-3-3|
A|11-3-1-1-1-1-1-1-1|
E|---1--------------|

Pre-Chorus

E|2~---1~---|
B|2~---1~---|
G|3~---2~---|
D|4~---3~---|
A|4~---3~---|
E|2~---1~---|

Chorus

E|-----------------------------------|
B|-----------------------------------|
G|33333333---------------------------|
D|33333333-33333333-44444444-66666666|x2
A|11111111-33333333-44444444-66666666|
E|---------11111111-22222222-44444444|

Chorus Part 2
Guitar 1
E|-----1--------1--------2--------4--|
B|------2--------1--------2--------4-|
G|3333---3--------2--------3--------5|
D|3333-----3333-----4444-----6666----|
A|1111-----3333-----4444-----6666----|
E|---------1111-----2222-----4444----|
Guitar 2                             |
E|-----------------------------------|
B|-----------------------------------|
G|33333333---------------------------|
D|33333333-33333333-44444444-66666666|
A|11111111-33333333-44444444-66666666|
E|---------11111111-22222222-44444444|

Chorus Part 3
E|--------------------1---1---1---1---1---1---2---3|
B|--------------------2---2---2---2---1---1---2---3|
G|33333333----------3-3-3-3-3-3-3-3---2---2---3---4|
D|33333333-33333333-3-3-3-3-3-3-3-3-3-3-3-3-4-4-6-6|
A|11111111-33333333-1-1-1-1-1-1-1-1-3-3-3-3-4-4-6-6|
E|---------11111111-----------------1---1-1-2-2-4-4|

Post- Chorus

E|1~-1---2~-2---1--------------|
B|2~--2--2~--2--2--------------|
G|3~---3-3~---3-3--------------|
D|3~-----4~-----3-3-3-3-5-5-6-6|
A|1~-----4~-----1-1-1-1-3-3-4-4|
E|-------2~--------------------|

Solo- play entire part twice

E|1111-1111-111222111111-1111-1111-111222444222-1111-1111-111222111111|
B|2222-2222-222222222111-2222-2222-222222444222-2222-2222-222222222111|
G|--------------------------------------------------------------------|
D|--------------------------------------------------------------------|
A|--------------------------------------------------------------------|
E|--------------------------------------------------------------------|

                  |not sure about|
E|2-2---------2-2-1-1-----2-2----|
B|----2-2-------------1-1-----2-2|
G|--------3-3--------------------|
D|-------------------------------|
A|-------------------------------|
E|-------------------------------|

Outro
Guitar 1
E|-------------------|
B|-------------------|
G|3333---------------|
D|3333-3333-4444-6666|x8
A|1111-3333-4444-6666|
E|-----1111-2222-4444|

Guitar 2 comes in after guitar 1 plays its part 4 times
E|-------------------|  |6666-8888-9999-11111111|
B|-------------------|  |xxxx-xxxx-xxxx-x-x-x-x-|
G|3333-5555-6666-8888|  |3333-5555-6666-8-8-8-8-|
D|xxxx-xxxx-xxxx-xxxx|x3|-----------------------|
A|1111-3333-4444-6666|  |-----------------------|
E|-------------------|  |-----------------------|

End On
E|2~---1~---1--|
B|2~---2~----2-|
G|3~---3~-----3|
D|4~---3~------|
A|4~---1~------|
E|2~-----------|
Tap to rate this tab
 
# A B C D E F G H I J K L M N O P Q R S T U V W X Y Z