Guitaretab - guitar tabs
Song name
# A B C D E F G H I J K L M N O P Q R S T U V W X Y Z

Anti-flag - Project For A New American Century tab

#----------------------------------PLEASE NOTE---------------------------------#
#This file is the author's own work and represents their interpretation of the #
#song. You may only use this file for private study, scholarship, or research. #
#------------------------------------------------------------------------------#


PROJECT FOR A NEW AMERICAN CENTURY
As recorded by Anti-Flag
(From the 2005 Album FOR BLOOD AND EMPIRE)

Tuning: Standard (low to high: E A D G B e)

Hi guys!
so this is basically my own power tab as text version, but I changed it so that it can 
read better,
i.e. I left out unnecessary parts and so on... hope you like it.

There are mostly three guitars playing, I'll try to put it for two guitars.
Also, I wrote no repeats etc, so you don't have to jump while playing (which is 
quite difficult).
So it might look quite long, but it actually isn't :-P

cont. means continued and tells you, that this staff starts exactly where the last one ended.


__________________________________________________________________________

 Intro


|---------------|---------------|----------------|------------x----|
|---------------|---------------|----------------|----------x------|
|---------------|---------------|----------------|--------x--------|
|-8--6-8--6-8-6-|-8--6-8--6-8-6-|-8-8-8---8-8-8--|-8----x----------|
|-8--6-8--6-8-6-|-8--6-8--6-8-6-|-8-8-8---8-8-8--|-8---------------|
|-6--4-6--4-6-4-|-6--4-6--4-6-4-|-6-6-6---6-6-6--|-6---------------|
|
|
|---------------|---------------|----------------|-----------------|
|---------------|---------------|----------------|-----------------|
|---------------|---------------|----------------|-----------------|
|-8--6-8--6-8-6-|-8--6-8--6-8-6-|-8-8-8---8-8-8--|-8---------------|
|-8--6-8--6-8-6-|-8--6-8--6-8-6-|-8-8-8---8-8-8--|-8---------------|
|-6--4-6--4-6-4-|-6--4-6--4-6-4-|-6-6-6---6-6-6--|-6---------------|

____________________________________________________________________________

Main Riff


|-----------------|-----------------|-----------------|-----------------|
|-6-6-------------|-7-7-------------|-6-6-------------|-7-7-----6-6-4-4-|
|-----6-6-3-3-----|-----6-6-3-3-----|-----6-6-3-3-----|-----6-6---------|
|-------------3-3-|-------------4-4-|-------------3-3-|-----------------|
|-----------------|-----------------|-----------------|-----------------|
|-----------------|-----------------|-----------------|-----------------|
|
|
|-----------------|-2---------------|-----------------|-2---------------|
|-----------------|-2---------------|-----------------|-2---------------|
|-6---------------|-3---------------|-6---------------|-3---------------|
|-8---------------|-4---------------|-8---------------|-4-------6-------|
|-8---------------|-4---------------|-8---------------|-4-------6-------|
|-----------------|-----------------|-----------------|---------4-------|

cont.
|-----------------|-----------------|-----------------|-----------------|
|-6-6-------------|-7-7-------------|-6-6---7-7---4-4-|---4-4---4---4---|
|-----6-6-3-3-----|-----6-6-3-3-6-6-|-6-6---6-6---5-5-|---5-5---5---5---|
|-------------3-3-|-----------------|-----------------|-----------------|
|-----------------|-----------------|-----------------|-----------------|
|-----------------|-----------------|-----------------|-----------------|
|
|
|-----------------|-2---------------|-----------------|-----------------|
|-----------------|-2---------------|-----------------|-----------------|
|-6---------------|-3---------------|-6---------------|-----------------|
|-8---------------|-4---------------|-6---------------|-6---------------|
|-8---------------|-4---------------|-4---------------|-6---------------|
|-----------------|-----------------|-----------------|-4---------------|

cont.
|-----------------|-----------------|-----------------|-----------------|
|-6-6-------------|-7-7-------------|-6-6-------------|-7-7-----6-6-4-4-|
|-----6-6-3-3-----|-----6-6-3-3-----|-----6-6-3-3-----|-----6-6---------|
|-------------3-3-|-------------4-4-|-------------3-3-|-----------------|
|-----------------|-----------------|-----------------|-----------------|
|-----------------|-----------------|-----------------|-----------------|
|
|
|-----------------|-2---------------|-----------------|-2---------------|
|-----------------|-2---------------|-----------------|-2---------------|
|-6---------------|-3---------------|-6---------------|-3---------------|
|-8---------------|-4---------------|-8---------------|-4-------6-------|
|-8---------------|-4---------------|-8---------------|-4-------6-------|
|-----------------|-----------------|-----------------|---------4-------|

cont.
|-----------------|-----------------|-----------------|-----------------|
|-6-6-------------|-7-7-------------|-6-6---7-7---4-4-|---4-4---4---4---|
|-----6-6-3-3-----|-----6-6-3-3-6-6-|-6-6---6-6---5-5-|---5-5---5---5---|
|-------------3-3-|-----------------|-----------------|-----------------|
|-----------------|-----------------|-----------------|-----------------|
|-----------------|-----------------|-----------------|-----------------|
|
|
|-----------------|-2---------------|-----------------|-----------------|
|-----------------|-2---------------|-----------------|-----------------|
|-6---------------|-3---------------|-6---------------|-----------------|
|-8---------------|-4---------------|-6---------------|-6---------------|
|-8---------------|-4---------------|-4---------------|-6---------------|
|-----------------|-----------------|-----------------|-4---------------|

____________________________________________________________________________

 Verse


|-x-x-x-x-x-x-x-x-|-x-x-x-x-x-x-x-x-|-x-x-x-x-x-x-x-x-|-x-x-x-x---------|
|-x-x-x-x-x-x-x-x-|-x-x-x-x-x-x-x-x-|-x-x-x-x-x-x-x-x-|-x-x-x-x-6---6---|
|-x-x-x-x-x-x-x-x-|-x-x-x-x-x-x-x-x-|-x-x-x-x-x-x-x-x-|-x-x-x-x-6---6---|
|-x-x-x-x-x-x-x-x-|-x-x-x-x-x-x-x-x-|-x-x-x-x-x-x-x-x-|-x-x-x-x-8---8---|
|-----------------|-----------------|-----------------|---------8---8---|
|-----------------|-----------------|-----------------|-----------------|

cont.
|-x-x-x-x-x-x-x-x-|-x-x-x-x-x-x-x-x-|-----------------|-----------------|
|-x-x-x-x-x-x-x-x-|-x-x-x-x-x-x-x-x-|-----------------|-----------------|
|-x-x-x-x-x-x-x-x-|-x-x-x-x-x-x-x-x-|-6---6---6-6-6---|-----------------|
|-x-x-x-x-x-x-x-x-|-x-x-x-x-x-x-x-x-|-6---6---6-6-6---|-6---6---6-6-6---|
|-----------------|-----------------|-4---4---4-4-4---|-6---6---6-6-6---|
|-----------------|-----------------|-----------------|-4---4---4-4-4---|

cont.
|-x-x-x-x-x-x-x-x-|-x-x-x-x-x-x-x-x-|-x-x-x-x-x-x-x-x-|-x-x-x-x---------|
|-x-x-x-x-x-x-x-x-|-x-x-x-x-x-x-x-x-|-x-x-x-x-x-x-x-x-|-x-x-x-x-6---6---|
|-x-x-x-x-x-x-x-x-|-x-x-x-x-x-x-x-x-|-x-x-x-x-x-x-x-x-|-x-x-x-x-6---6---|
|-x-x-x-x-x-x-x-x-|-x-x-x-x-x-x-x-x-|-x-x-x-x-x-x-x-x-|-x-x-x-x-8---8---|
|-----------------|-----------------|-----------------|---------8---8---|
|-----------------|-----------------|-----------------|-----------------|

cont.
|-x-x-x-x-x-x-x-x-|-x-x-x-x-x-x-x-x-|-----------------|-----------------|
|-x-x-x-x-x-x-x-x-|-x-x-x-x-x-x-x-x-|-----------------|-----------------|
|-x-x-x-x-x-x-x-x-|-x-x-x-x-x-x-x-x-|-6---6---6-6-6---|-----------------|
|-x-x-x-x-x-x-x-x-|-x-x-x-x-x-x-x-x-|-6---6---6-6-6---|-6---6---6-6-6---|
|-----------------|-----------------|-4---4---4-4-4---|-6---6---6-6-6---|
|-----------------|-----------------|-----------------|-4---4---4-4-4---|

_____________________________________________________________________________

 Chorus


|---------------|------------|----------------|----------------|
|---------------|------------|----------------|----------------|
|---------------|------------|-11------11--11-|-11--11--11--11-|
|-8---8---------|------------|-11------11--11-|-11--11--11--11-|
|-8---8---------|------------|-9-------9---9--|-9---9---9---9--|
|-6---6---------|------------|----------------|----------------|
|
|
|---------------|------------|-9--------------|-----9---9---9--|
|---------------|------------|-7--------------|-----7---7---7--|
|---------------|------------|----------------|----------------|
|-8---8---------|------------|----------------|----------------|
|-8---8---------|------------|----------------|----------------|
|-6---6---------|------------|----------------|----------------|

cont.
|----------------|----------------|----------------|----------------|
|----------------|----------------|----------------|----------------|
|-6---6---6---6--|-6---6---6---6--|----------------|----------------|
|-6---6---6---6--|-6---6---6---6--|-6---6---6---6--|-6---6---6---6--|
|-4---4---4---4--|-4---4---4---4--|-6---6---6---6--|-6---6---6---6--|
|----------------|----------------|-4---4---4---4--|-4---4---4---4--|
|
|
|-4---4---4---4--|-4---4---4---4--|-4---4---4---4--|-4---4---4---4--|
|-x---x---x---x--|-x---x---x---x--|-4---4---4---4--|-4---4---4---4--|
|-6---6---6---6--|-6---6---6---6--|----------------|----------------|
|-6---6---6---6--|-6---6---6---6--|----------------|----------------|
|----------------|----------------|----------------|----------------|
|----------------|----------------|----------------|----------------|

cont.
|-----------------|-----------------|----------------|----------------|
|-----------------|-----------------|----------------|----------------|
|-----------------|-----------------|-11------11--11-|-11--11--11--11-|
|-----8-8-----8-8-|-----8-8-----8-8-|-11------11--11-|-11--11--11--11-|
|-----8-8-----8-8-|-----8-8-----8-8-|-9-------9---9--|-9---9---9---9--|
|-----6-6-----6-6-|-----6-6-----6-6-|----------------|----------------|
|
|
|-----------------|-----------------|-9--------------|-----9---9---9--|
|-----------------|-----------------|-7--------------|-----7---7---7--|
|-----------------|-----------------|-6--------------|-----6---6---6--|
|-----8-8-----8-8-|-----8-8-----8-8-|----------------|----------------|
|-----8-8-----8-8-|-----8-8-----8-8-|----------------|----------------|
|-6-6-6-6-6-6-6-6-|-6-6-6-6-6-6-6-6-|----------------|----------------|

cont.
|----------------|----------------|----------------|----------------|
|----------------|----------------|----------------|----------------|
|-6---6---6---6--|-6---6---6---6--|----------------|----------------|
|-6---6---6---6--|-6---6---6---6--|-6---6---6---6--|-6---6---6---6--|
|-4---4---4---4--|-4---4---4---4--|-6---6---6---6--|-6---6---6---6--|
|----------------|----------------|-4---4---4---4--|-4---4---4---4--|
|
|
|-4---4---4---4--|-4---4---4---4--|-4---4---4---4--|-4---4---4---4--|
|-x---x---x---x--|-x---x---x---x--|-4---4---4---4--|-4---4---4---4--|
|-6---6---6---6--|-6---6---6---6--|----------------|----------------|
|-6---6---6---6--|-6---6---6---6--|----------------|----------------|
|----------------|----------------|----------------|----------------|
|----------------|----------------|----------------|----------------|

cont.
|-----------------|----------------|
|-----------------|----------------|
|-----------------|----------------|
|-6-6-6-6-6-6-6-6-|-6--------------|
|-6-6-6-6-6-6-6-6-|-6--------------|
|-4-4-4-4-4-4-4-4-|-4--------------|
|
|
|-4-4-4-4-4-4-4-4-|-4--------------|
|-4-4-4-4-4-4-4-4-|-4--------------|
|-5-5-5-5-5-5-5-5-|-5--------------|
|-6-6-6-6-6-6-6-6-|-6--------------|
|-6-6-6-6-6-6-6-6-|-6--------------|
|-4-4-4-4-4-4-4-4-|-4--------------|


_____________________________________________________________________________

 Main Riff

|-----------------|-----------------|-----------------|-----------------|
|-6-6-------------|-7-7-------------|-6-6-------------|-7-7-----6-6-4-4-|
|-----6-6-3-3-----|-----6-6-3-3-----|-----6-6-3-3-----|-----6-6---------|
|-------------3-3-|-------------4-4-|-------------3-3-|-----------------|
|-----------------|-----------------|-----------------|-----------------|
|-----------------|-----------------|-----------------|-----------------|
|
|
|-----------------|-2---------------|-----------------|-2---------------|
|-----------------|-2---------------|-----------------|-2---------------|
|-6---------------|-3---------------|-6---------------|-3---------------|
|-8---------------|-4---------------|-8---------------|-4-------6-------|
|-8---------------|-4---------------|-8---------------|-4-------6-------|
|-----------------|-----------------|-----------------|---------4-------|

cont.
|-----------------|-----------------|-----------------|-----------------|
|-6-6-------------|-7-7-------------|-6-6---7-7---4-4-|---4-4---4---4---|
|-----6-6-3-3-----|-----6-6-3-3-6-6-|-6-6---6-6---5-5-|---5-5---5---5---|
|-------------3-3-|-----------------|-----------------|-----------------|
|-----------------|-----------------|-----------------|-----------------|
|-----------------|-----------------|-----------------|-----------------|
|
|
|-----------------|-2---------------|-----------------|-----------------|
|-----------------|-2---------------|-----------------|-----------------|
|-6---------------|-3---------------|-6---------------|-----------------|
|-8---------------|-4---------------|-6---------------|-6---------------|
|-8---------------|-4---------------|-4---------------|-6---------------|
|-----------------|-----------------|-----------------|-4---------------|

__________________________________________________________________________

 Verse 2

|-x-x-x-x-x-x-x-x-|-x-x-x-x-x-x-x-x-|-x-x-x-x-x-x-x-x-|-x-x-x-x---------|
|-x-x-x-x-x-x-x-x-|-x-x-x-x-x-x-x-x-|-x-x-x-x-x-x-x-x-|-x-x-x-x-6---6---|
|-x-x-x-x-x-x-x-x-|-x-x-x-x-x-x-x-x-|-x-x-x-x-x-x-x-x-|-x-x-x-x-6---6---|
|-x-x-x-x-x-x-x-x-|-x-x-x-x-x-x-x-x-|-x-x-x-x-x-x-x-x-|-x-x-x-x-8---8---|
|-----------------|-----------------|-----------------|---------8---8---|
|-----------------|-----------------|-----------------|-----------------|
|
|
|-6---------------|-----------------|-----------------|---------6---6---|
|-6---------------|-----------------|-----------------|---------6---6---|
|-----------------|-----------------|-----------------|-----------------|
|-----------------|-----------------|-----------------|-----------------|
|-----------------|-----------------|-----------------|-----------------|
|-----------------|-----------------|-----------------|-----------------|

cont.              pickslide.......
|-x-x-x-x-x-x-x-x-|-x-x-x-x-x-x-x-x-|----------------|----------------|
|-x-x-x-x-x-x-x-x-|-x-x-x-x-x-x-x-x-|----------------|----------------|
|-x-x-x-x-x-x-x-x-|-x-x-x-x-x-x-x-x-|-6---6---6-6-6--|----------------|
|-x-x-x-x-x-x-x-x-|-x-x-x-x-x-x-x-x-|-6---6---6-6-6--|-6---6---6-6-6--|
|-----------------|-----------------|-4---4---4-4-4--|-6---6---6-6-6--|
|-----------------|-----------------|----------------|-4---4---4-4-4--|
|
|
|                      pickslide here
|-6---------------|-----------------|----------------|----------------|
|-6---------------|-----------------|----------------|----------------|
|-----------------|-----------------|-6---6---6-6-6--|----------------|
|-----------------|-----------------|-6---6---6-6-6--|-6---6---6-6-6--|
|-----------------|-----------------|-4---4---4-4-4--|-6---6---6-6-6--|
|-----------------|-----------------|----------------|-4---4---4-4-4--|

cont.
|-x-x-x-x-x-x-x-x-|-x-x-x-x-x-x-x-x-|-x-x-x-x-x-x-x-x-|-x-x-x-x---------|
|-x-x-x-x-x-x-x-x-|-x-x-x-x-x-x-x-x-|-x-x-x-x-x-x-x-x-|-x-x-x-x-6---6---|
|-x-x-x-x-x-x-x-x-|-x-x-x-x-x-x-x-x-|-x-x-x-x-x-x-x-x-|-x-x-x-x-6---6---|
|-x-x-x-x-x-x-x-x-|-x-x-x-x-x-x-x-x-|-x-x-x-x-x-x-x-x-|-x-x-x-x-8---8---|
|-----------------|-----------------|-----------------|---------8---8---|
|-----------------|-----------------|-----------------|-----------------|
|
|
|-6---------------|-----------------|-----------------|---------6---6---|
|-6---------------|-----------------|-----------------|---------6---6---|
|-----------------|-----------------|-----------------|-----------------|
|-----------------|-----------------|-----------------|-----------------|
|-----------------|-----------------|-----------------|-----------------|
|-----------------|-----------------|-----------------|-----------------|
[ Tab from: http://www.guitaretab.com/a/anti-flag/87947.html ]
cont.              pickslide.......
|-x-x-x-x-x-x-x-x-|-x-x-x-x-x-x-x-x-|----------------|----------------|
|-x-x-x-x-x-x-x-x-|-x-x-x-x-x-x-x-x-|----------------|----------------|
|-x-x-x-x-x-x-x-x-|-x-x-x-x-x-x-x-x-|-6---6---6-6-6--|----------------|
|-x-x-x-x-x-x-x-x-|-x-x-x-x-x-x-x-x-|-6---6---6-6-6--|-6---6---6-6-6--|
|-----------------|-----------------|-4---4---4-4-4--|-6---6---6-6-6--|
|-----------------|-----------------|----------------|-4---4---4-4-4--|
|
|
|                      pickslide here
|-6---------------|-----------------|----------------|----------------|
|-----------------|-----------------|----------------|----------------|
|-----------------|-----------------|-6---6---6-6-6--|----------------|
|-----------------|-----------------|-6---6---6-6-6--|-6---6---6-6-6--|
|-----------------|-----------------|-4---4---4-4-4--|-6---6---6-6-6--|
|-----------------|-----------------|----------------|-4---4---4-4-4--|


____________________________________________________________________________

 Chorus


|---------------|------------|----------------|----------------|
|---------------|------------|----------------|----------------|
|---------------|------------|-11------11--11-|-11--11--11--11-|
|-8---8---------|------------|-11------11--11-|-11--11--11--11-|
|-8---8---------|------------|-9-------9---9--|-9---9---9---9--|
|-6---6---------|------------|----------------|----------------|
|
|
|---------------|------------|-9--------------|-----9---9---9--|
|---------------|------------|-7--------------|-----7---7---7--|
|---------------|------------|----------------|----------------|
|-8---8---------|------------|----------------|----------------|
|-8---8---------|------------|----------------|----------------|
|-6---6---------|------------|----------------|----------------|

cont.
|----------------|----------------|----------------|----------------|
|----------------|----------------|----------------|----------------|
|-6---6---6---6--|-6---6---6---6--|----------------|----------------|
|-6---6---6---6--|-6---6---6---6--|-6---6---6---6--|-6---6---6---6--|
|-4---4---4---4--|-4---4---4---4--|-6---6---6---6--|-6---6---6---6--|
|----------------|----------------|-4---4---4---4--|-4---4---4---4--|
|
|
|-4---4---4---4--|-4---4---4---4--|-4---4---4---4--|-4---4---4---4--|
|-x---x---x---x--|-x---x---x---x--|-4---4---4---4--|-4---4---4---4--|
|-6---6---6---6--|-6---6---6---6--|----------------|----------------|
|-6---6---6---6--|-6---6---6---6--|----------------|----------------|
|----------------|----------------|----------------|----------------|
|----------------|----------------|----------------|----------------|

cont.
|-----------------|-----------------|----------------|----------------|
|-----------------|-----------------|----------------|----------------|
|-----------------|-----------------|-11------11--11-|-11--11--11--11-|
|-----8-8-----8-8-|-----8-8-----8-8-|-11------11--11-|-11--11--11--11-|
|-----8-8-----8-8-|-----8-8-----8-8-|-9-------9---9--|-9---9---9---9--|
|-----6-6-----6-6-|-----6-6-----6-6-|----------------|----------------|
|
|
|-----------------|-----------------|-9--------------|-----9---9---9--|
|-----------------|-----------------|-7--------------|-----7---7---7--|
|-----------------|-----------------|-6--------------|-----6---6---6--|
|-----8-8-----8-8-|-----8-8-----8-8-|----------------|----------------|
|-----8-8-----8-8-|-----8-8-----8-8-|----------------|----------------|
|-6-6-6-6-6-6-6-6-|-6-6-6-6-6-6-6-6-|----------------|----------------|

cont.
|----------------|----------------|----------------|----------------|
|----------------|----------------|----------------|----------------|
|-6---6---6---6--|-6---6---6---6--|----------------|----------------|
|-6---6---6---6--|-6---6---6---6--|-6---6---6---6--|-6---6---6---6--|
|-4---4---4---4--|-4---4---4---4--|-6---6---6---6--|-6---6---6---6--|
|----------------|----------------|-4---4---4---4--|-4---4---4---4--|
|
|
|-4---4---4---4--|-4---4---4---4--|-4---4---4---4--|-4---4---4---4--|
|-x---x---x---x--|-x---x---x---x--|-4---4---4---4--|-4---4---4---4--|
|-6---6---6---6--|-6---6---6---6--|----------------|----------------|
|-6---6---6---6--|-6---6---6---6--|----------------|----------------|
|----------------|----------------|----------------|----------------|
|----------------|----------------|----------------|----------------|

____________________________________________________________________________

 Bridge

|-----------------|-----------------|
|-----------------|-----------------|
|-----------------|-----------------|
|-----------------|-6---6---6---6---|
|-6-6-6-6-6-6-6-6-|-6---6---6---6---|
|-4-4-4-4-4-4-4-4-|-4---4---4---4---|
|
|
|-----------------|-----------------|
|-----------------|-----------------|
|-----------------|-----------------|
|-----------------|-----------------|
|-----------------|-6-6-6-6-6-6-6-6-|
|-----------------|-4-4-4-4-4-4-4-4-|

cont.
|----------------|--------------------|-----------------|-----------------|
|----------------|--------------------|-----------------|-----------------|
|---------6---6--|-8---8--------------|-----------------|-----------------|
|-4---4---6---6--|-8---8---8/10\8--8--|---8-8-8-8-8-8-8-|-8-8-8-8-8-8-8-8-|
|-4---4---4---4--|-6---6---6/8-\6--8--|---8-8-8-8-8-8-8-|-8-8-8-8-8-8-8-8-|
|-2---2----------|-----------------6--|---6-6-6-6-6-6-6-|-6-6-6-6-6-6-6-6-|
|
|----------------|--------------------|-----6-6---6-----|-----6-6---6-6---|
|----------------|--------------------|-----6-6---6-----|-----6-6---6-6---|
|---------6---6--|-8---8---8/10\8-----|-----x-x---x-----|-----x-x---x-x---|
|-4---4---6---6--|-8---8---8/10\8--8--|-----8-8---8-----|-----8-8---8-8---|
|-4---4----------|-----------------8--|-----8-8---8-----|-----8-8---8-8---|
|----------------|-----------------6--|-----------------|-----------------|

cont.
|----------------|-------------------|--------------|-----------------------|
|----------------|-------------------|--------------|-----------------------|
|---------6---6--|-8---8-------------|--------------|----/13-13-13-13-13\---|
|-4---4---6---6--|-8---8---8/10\8--8-|--8-8-8-8-8-8-|-6--/13-13-13-13-13\---|
|-4---4---4---4--|-6---6---6/8-\6--8-|--8-8-8-8-8-8-|-6--/11-11-11-11-11\---|
|-2---2----------|-----------------6-|--6-6-6-6-6-6-|-4---------------------|
|
|
|----------------|-------------------|----6-6---6---|-----------------------|
|----------------|-------------------|----6-6---6---|-9---9--9--9--9--9--9\-|
|---------6---6--|-8---8---8/10\8----|----x-x---x---|-8---8--8--8--8--8--8\-|
|-4---4---6---6--|-8---8---8/10\8--8-|----8-8---8---|-6---6--6--6--6--6--6\-|
|-4---4----------|-----------------8-|----8-8---8---|-----------------------|
|----------------|-----------------6-|--------------|-----------------------|

cont.
|----------------|-------------------|--------------|----------------|
|----------------|-------------------|--------------|----------------|
|---------6---6--|-8---8-------------|--------------|----------------|
|-4---4---6---6--|-8---8---8/10\8--8-|--8-8-8-8-8-6-|--6-6-6-6-6-6-4-|
|-4---4---4---4--|-6---6---6/8-\6--8-|--8-8-8-8-8-6-|--6-6-6-6-6-6-4-|
|-2---2----------|-----------------6-|--6-6-6-6-6-4-|--4-4-4-4-4-4-2-|
|
|
|----------------|-------------------|----6-6-----4-|----4-4-------2-|
|----------------|-------------------|----6-6-----4-|----4-4-------2-|
|---------6---6--|-8---8---8/10\8----|----x-x-----x-|----x-x-------x-|
|-4---4---6---6--|-8---8---8/10\8--8-|----8-8-----6-|----6-6-------4-|
|-4---4----------|-----------------8-|----8-8-----6-|----6-6-------4-|
|----------------|-----------------6-|--------------|----------------|

cont.
|----------------|----------------|----------------|----------------|
|----------------|----------------|----------------|----------------|
|--------------8-|--8-8-8-8-8-8---|----------------|----------------|
|--4-4-4-4-4-4-8-|--8-8-8-8-8-8-8-|--8-8-8-8-8-8-6-|--6-6-6-6-6-6-4-|
|--4-4-4-4-4-4-6-|--6-6-6-6-6-6-8-|--8-8-8-8-8-8-6-|--6-6-6-6-6-6-4-|
|--2-2-2-2-2-2---|--------------6-|--6-6-6-6-6-6-4-|--4-4-4-4-4-4-2-|
|
|
|----2-2-------6-|----6-6---6-6-6-|----6-6-------4-|----4-4-------9-|
|----2-2-------x-|----x-x---x-x-6-|----6-6-------4-|----4-4-------x-|
|----x-x-------8-|----8-8---8-8-x-|----x-x-------x-|----x-x------11-|
|----4-4-------8-|----8-8---8-8-8-|----8-8-------6-|----6-6------11-|
|----4-4-------6-|----6-6---6-6-8-|----8-8-------6-|----6-6-------9-|
|----2-2---------|--------------6-|----6-6-------4-|----4-4---------|

cont.
|----------------|------------------|
|----------------|------------------|
|----------------|------------------|
|--4-4-4-4-4-4-4-|--4-4-4-4-4-4-4-4-|
|--4-4-4-4-4-4-4-|--4-4-4-4-4-4-4-4-|
|--2-2-2-2-2-2-2-|--2-2-2-2-2-2-2-2-|
|
|--9-------------|--9---9---9---9---|
|--x-------------|--x---x---x---x---|
|-11-------------|-11--11--11--11---|
|-11-------------|-11--11--11--11---|
|--9-------------|--9---9---9---9---|
|----------------|------------------|

___________________________________________________________________________

 Chorus

|-----------|
|-----------|
|-----------|
|-8--8------|      pause for 5 measures
|-8--8------|
|-6--6------|

cont.                               pickslide....
|----------|----------|-----------|--------------|
|----------|----------|-----------|--------------|
|----------|----------|-----------|--------------|
|-6--------|-6--------|-6----6----|--------------|
|-6--------|-6--------|-6----6----|--------------|
|-4--------|-4--------|-4----4----|--------------|
|
|                                      pickslide..
|----------|----------|-4----4----|-4------------|
|----------|----------|-4----4----|-4------------|
|----------|----------|-x----x----|-x------------|
|-6--------|-6--------|-6----6----|-6------------|
|-6--------|-6--------|-6----6----|-6------------|
|-4--------|-4--------|-4----4----|-4------------|

cont.
|--6--6--6--6--6--6--6--6--|--6--6--6--6--6--6--6--6--|
|--6--6--6--6--6--6--6--6--|--6--6--6--6--6--6--6--6--|
|--x--x--x--x--x--x--x--x--|--x--x--x--x--x--x--x--x--|
|--8--8--8--8--8--8--8--8--|--8--8--8--8--8--8--8--8--|
|--8--8--8--8--8--8--8--8--|--8--8--8--8--8--8--8--8--|
|--6--6--6--6--6--6--6--6--|--6--6--6--6--6--6--6--6--|
|
|
|--------------------------|--------------------------|
|--------------------------|--------------------------|
|--3--3--3--3--3--3--3--3--|-/6--6--6--5--5--5--6--6--|
|--x--x--x--x--x--x--x--x--|-/x--x--x--x--x--x--x--x--|
|--1--1--1--1--1--1--1--1--|-/4--4--4--3--3--3--4--4--|
|--------------------------|--------------------------|

cont.
|--9--9--9--9--9--9--9--9--|--9--9--9--9--9--9--9--9--|
|--7--7--7--7--7--7--7--7--|--7--7--7--7--7--7--7--7--|
|--6--6--6--6--6--6--6--6--|--6--6--6--6--6--6--6--6--|
|--------------------------|--------------------------|
|--------------------------|--------------------------|
|--------------------------|--------------------------|
|
|
|--------------------------|--------------------------|
|--------------------------|--------------------------|
|--6--6--6--6--6--6--6--6--|-/6--6--6--5--5--5--6--6--|
|--x--x--x--x--x--x--x--x--|-/x--x--x--x--x--x--x--x--|
|--4--4--4--4--4--4--4--4--|-/4--4--4--3--3--3--4--4--|
|--------------------------|--------------------------|

cont.
|--4--4--4--4--4--4--4--4--|---4--4--4--4--4--4--4--4--|
|--x--x--x--x--x--x--x--x--|---x--x--x--x--x--x--x--x--|
|--6--6--6--6--6--6--6--6--|---6--6--6--6--6--6--6--6--|
|--6--6--6--6--6--6--6--6--|---6--6--6--6--6--6--6--6--|
|--4--4--4--4--4--4--4--4--|---4--4--4--4--4--4--4--4--|
|--------------------------|---------------------------|
|
|
|--------------------------|---------------------------|
|--------------------------|---------------------------|
|--6--6--6--6--6--6--6--6--|-/10-10-10-10--6--6--6--6--|
|--x--x--x--x--x--x--x--x--|--/x--x--x--x--x--x--x--x--|
|--4--4--4--4--4--4--4--4--|--/8--8--8--8--4--4--4--4--|
|--------------------------|---------------------------|

cont.
|--4--4--4--4--4--4--4--4--|--4--4--4--4--4--4--4--4--|
|--4--4--4--4--4--4--4--4--|--4--4--4--4--4--4--4--4--|
|--x--x--x--x--x--x--x--x--|--x--x--x--x--x--x--x--x--|
|--6--6--6--6--6--6--6--6--|--6--6--6--6--6--6--6--6--|
|--6--6--6--6--6--6--6--6--|--6--6--6--6--6--6--6--6--|
|--4--4--4--4--4--4--4--4--|--4--4--4--4--4--4--4--4--|
|
|
|--------------------------|--------------------------|
|--------------------------|--------------------------|
|--8--8--8--8--8--8--8--8--|--8--8--8--8--8--8--8--8--|
|--x--x--x--x--x--x--x--x--|--x--x--x--x--x--x--x--x--|
|--6--6--6--6--6--6--6--6--|--6--6--6--6--6--6--6--6--|
|--------------------------|--------------------------|


cont.
|--6--6--6--6--6--6--6--6--|--6--6--6--6--6--6--6--6--|
|--6--6--6--6--6--6--6--6--|--6--6--6--6--6--6--6--6--|
|--x--x--x--x--x--x--x--x--|--x--x--x--x--x--x--x--x--|
|--8--8--8--8--8--8--8--8--|--8--8--8--8--8--8--8--8--|
|--8--8--8--8--8--8--8--8--|--8--8--8--8--8--8--8--8--|
|--6--6--6--6--6--6--6--6--|--6--6--6--6--6--6--6--6--|
|
|
|--------------------------|--------------------------|
|--------------------------|--------------------------|
|--3--3--3--3--3--3--3--3--|-/6--6--6--5--5--5/15-15--|
|--x--x--x--x--x--x--x--x--|-/x--x--x--x--x--x-/x--x--|
|--1--1--1--1--1--1--1--1--|-/4--4--4--3--3--3/13-13--|
|--------------------------|--------------------------|

cont.
|--9--9--9--9--9--9--9--9--|--9--9--9--9--9--9--9--9--|
|--7--7--7--7--7--7--7--7--|--7--7--7--7--7--7--7--7--|
|--6--6--6--6--6--6--6--6--|--6--6--6--6--6--6--6--6--|
|--------------------------|--------------------------|
|--------------------------|--------------------------|
|--------------------------|--------------------------|
|
|
|--------------------------|--------------------------|
|--------------------------|--------------------------|
|-15-15-15-15-15-15-15-15--|-13-13-13-13-11-11-11-11--|
|--x--x--x--x--x--x--x--x--|--x--x--x--x--x--x--x--x--|
|-13-13-13-13-13-13-13-13--|-11-11-11-11--9--9--9--9--|
|--------------------------|--------------------------|

cont.
|--4--4--4--4--4--4--4--4--|--4--4--4--4--4--4--4--4--|
|--x--x--x--x--x--x--x--x--|--x--x--x--x--x--x--x--x--|
|--6--6--6--6--6--6--6--6--|--6--6--6--6--6--6--6--6--|
|--6--6--6--6--6--6--6--6--|--6--6--6--6--6--6--6--6--|
|--4--4--4--4--4--4--4--4--|--4--4--4--4--4--4--4--4--|
|--------------------------|--------------------------|
|
|
|--------------------------|--------------------------|
|--------------------------|--------------------------|
|-13-13-13-13-13-13-13-13--|-10-10-10-10--6--6--6--6--|
|--x--x--x--x--x--x--x--x--|--x--x--x--x--x--x--x--x--|
|-11-11-11-11-11-11-11-11--|--8--8--8--8--4--4--4--4--|
|--------------------------|--------------------------|

cont.
|--4--4--4--4--4--4--4--4--|--4--4--4--4--4--4--4--4--|
|--4--4--4--4--4--4--4--4--|--4--4--4--4--4--4--4--4--|
|--x--x--x--x--x--x--x--x--|--x--x--x--x--x--x--x--x--|
|--6--6--6--6--6--6--6--6--|--6--6--6--6--6--6--6--6--|
|--6--6--6--6--6--6--6--6--|--6--6--6--6--6--6--6--6--|
|--4--4--4--4--4--4--4--4--|--4--4--4--4--4--4--4--4--|
|
|
|--------------------------|--------------------------|
|--------------------------|--------------------------|
|--8--8--8--8--8--8--8--8--|--8--8--8--8--8--8--8--8--|
|--x--x--x--x--x--x--x--x--|--x--x--x--x--x--x--x--x--|
|--6--6--6--6--6--6--6--6--|--6--6--6--6--6--6--6--6--|
|--------------------------|--------------------------|

cont.
|--4--4--4--4--4--4--4--4--|--4----------------|
|--4--4--4--4--4--4--4--4--|--4----------------|
|--x--x--x--x--x--x--x--x--|--x----------------|
|--6--6--6--6--6--6--6--6--|--6----------------|
|--6--6--6--6--6--6--6--6--|--6----------------|
|--4--4--4--4--4--4--4--4--|--4----------------|
|
|--------------------------|-------------------|
|--------------------------|-------------------|
|-10-10-10-10-10-10-10-10--|--8----------------|
|--x--x--x--x--x--x--x--x--|--x----------------|
|--8--8--8--8--8--8--8--8--|--6----------------|
|--------------------------|-------------------|

____________________________________________________________________________

 Main Riff Outro


|-----------------|-----------------|-----------------|-----------------|
|-6-6-------------|-7-7-------------|-6-6-------------|-7~~~~~~~~~~~~---|
|-----6-6-3-3-----|-----6-6-3-3-----|-----6-6-3-3-----|-----------------|
|-------------3-3-|-------------4-4-|-------------3-x-|-----------------|
|-----------------|-----------------|-----------------|-----------------|
|-----------------|-----------------|-----------------|-----------------|
|
|
|-----------------|-2---------------|-----------------|-2---------------|
|-----------------|-2---------------|-----------------|-2---------------|
|-6---------------|-3---------------|-6---------------|-3---------------|
|-8---------------|-4---------------|-8---------------|-4---------------|
|-8---------------|-4---------------|-8---------------|-4---------------|
|-----------------|-----------------|-----------------|-----------------|

                                                        feedback effects
                                                          and stuff


so, that's it.
hope you enjoyed playing.
please leave comments for suggestions or questions! please rate!
Related for Project For A New American Century tab
Advertisement will be closed in 10 seconds