Guitaretab - guitar tabs
Song name
# A B C D E F G H I J K L M N O P Q R S T U V W X Y Z

Anti-flag - For Blood And Empire tab

Anti-Flag
For Blood And Empire
Album Tab

Album Tab put together by: antiflag125462 from Ultimate-Guitar.com

Thanks To
Babaca from thepeopleunited.net
Shaun Amos from the people united.net
distorted620@gmail.com
blink182_4_life from Ultimate-Guitar.com
Pandrew947 from Ultimate-Guitar.com


I tabbed out several of these songs myself, I have noted and given credit
to those tabs that were not done by me.

Hopefully at some point I will add the B-Sides on here as well

Enjoy

1. I'd Tell You But...               (tabbed by Babaca)
2. The Press Corpse                  (tabbed by Shaun Amos)
3. Exodus(Emigre)                    (tabbed by distorted620@gmail.com)
4. Project For A New American Century(tabbed by antiflag125462)
5. Hymn For The Dead                 (tabbed by antiflag125462)
6. This Is The End(For You My Friend)(tabbed by antiflag125462)
7. One Trillion Dollars              (tabbed by Blink182_4_life)
8. State Funeral                     (tabbed by antiflag125462)
9. Confessions of an Economic Hitman (tabbed by Shaun Amos and Pandrew947)
10. War Sucks, Lets Party!           (tabbed by Blink182_4_life)
11. The W.T.O. Kills Farmers         (tabbed by antiflag125462)
12. Cities Burn                      (tabbed by antiflag125462)
13. Depleted Uranium Is A War Crime  (tabbed by antiflag125462)

1. I'd Tell You But...

Thanks to Babaca from The People United For This Tab

STANDARD TUNING

^ = pinch harmonic
b = bend up (to where notified in the brackets)
~ = vibrato/ring out
pm = palm mute (under where marked with a . )
/ = slide
p = pull off
h = hammer on


INTRO

Guitar 1
e|-------------------------------|
B|-7-0-0-0-7-0-0-0-7-0-0-0-4-5-4-|
G|-------------------------------|
D|-------------------------------|
A|-------------------------------|
E|-------------------------------|

Guitar 2 (is quiet)

BRIDGE

Guitar 1
e|-------------------------------- |------------------------------------------| \
B|-2--2-5-5-4-4-2-2--2--5-5-4-4-7- |-7-0-0-0-7-0-0-0-7-0-0-0-4-5-4------------| \
G|-------------------------------- X3, then |---------------------------------| \ whole
D|-------------------------------- |------------------------------- / bridge--| X2
A|-------------------------------- |------------------------------------------| /
E|-------------------------------- |------------------------------------------| /

Guitar 2
e|--------------------------------------------------------------------|
B|--------------------------------------------------------------------|
G|-6-6-6-6-6-6-6-6-------------------2-2-2-2-2-2-2-2--4-4-4-4-4-4-4-4-| X2
D|-6-6-6-6-6-6-6-6--2-2-2-2-2-2-2-2--2-2-2-2-2-2-2-2--4-4-4-4-4-4-4-4-|
A|-4-4-4-4-4-4-4-4--2-2-2-2-2-2-2-2--0-0-0-0-0-0-0-0--2-2-2-2-2-2-2-2-|
E|------------------0-0-0-0-0-0-0-0-----------------------------------|


VERSE 1

Guitar 1&2
e|------------------------------------------------------------------------|
B|------------------------------------------------------------------------|
G|-6--6-6-6-6-6-6-6--4--4-4-4-4-4-4-4--2--2-2-2-2-2-2-2--4--4-4-4-4-4-4-4-| X2
D|-6--6-6-6-6-6-6-6--4--4-4-4-4-4-4-4--2--2-2-2-2-2-2-2--4--4-4-4-4-4-4-4-|
A|-4--4-4-4-4-4-4-4--2--2-2-2-2-2-2-2--0--0-0-0-0-0-0-0--2--2-2-2-2-2-2-2-|
E|------------------------------------------------------------------------|
pm . . . . . . . . . . . . . . . .


PRE-CHORUS

Guitar 1
e|-------------------------------------|
B|------------------------------0-5-4~-|
G|-2-2-2-2-2-2--6-6--4-4-4-4-4---------|
D|-2-2-2-2-2-2--6-6--4-4-4-4-4---------|
A|-0-0-0-0-0-0--4-4--2-2-2-2-2---------|
E|-------------------------------------|

Guitar 2
e|-------------------------------------|
B|-------------------------------------|
G|-2-2-2-2-2-2--6-6--4-4-4-4-4---------|
D|-2-2-2-2-2-2--6-6--4-4-4-4-4--pause--|
A|-0-0-0-0-0-0--4-4--2-2-2-2-2---------|
E|-------------------------------------|


CHORUS

Guitar 1
e|--------------------------------------------------------------------------|
B|-------------------------------0-5-4~-------------------------------------|
G|-6-6-6-6-----------2-2-2-2--4----------6-6-6-6-----------2-2-2-2--4-4-4-4-|
D|-6-6-6-6--2-2-2-2--2-2-2-2--4----------6-6-6-6--2-2-2-2--2-2-2-2--4-4-4-4-|
A|-4-4-4-4--2-2-2-2--0-0-0-0--2----------4-4-4-4--2-2-2-2--0-0-0-0--2-2-2-2-|
E|----------0-0-0-0-------------------------------0-0-0-0-------------------|

Guitar 2
e|------------------------------------------------------------------------|
B|------------------------------------------------------------------------|
G|-6-6-6-6-----------2-2-2-2--4-4-4-4--6-6-6-6-----------2-2-2-2--4-4-4-4-|
D|-6-6-6-6--2-2-2-2--2-2-2-2--4-4-4-4--6-6-6-6--2-2-2-2--2-2-2-2--4-4-4-4-|
A|-4-4-4-4--2-2-2-2--0-0-0-0--2-2-2-2--4-4-4-4--2-2-2-2--0-0-0-0--2-2-2-2-|
E|----------0-0-0-0-----------------------------0-0-0-0-------------------|


POST-CHORUS

Guitar 1&2
e|---------------------------------0-0--0--0-0--0--0-0--0--0-0--0--5-5--5--5-5--5--5-5--5--5-5--5--5-5--5---------|
B|---------------------------------2-2--2--2-2--2--2-2--2--2-2--2--2-2--2--2-2--2--2-2--2--2-2--2--2-2--2---------|

pause-|
D|-x-x--x--x-x--x--x-x--x--x-x--x---------------------------------------------------------------------------------|
A|-4-4--4--4-4--4--4-4--4--4-4--4---------------------------------------------------------------------------------|
E|----------------------------------------------------------------------------------------------------------------|
pm . . . . . . . . . . . . . . . . . . . . . . . . . .


SOLO

Guitar 1
e|------------------------------------------------------------------------------9^--0-----------------------------|
B|---------9----------9----------9----------9----------9----------9----------9------------------------------------|
G|-11b(13)----11b(13)----11b(13)----11b(13)----11b(13)----11b(13)----11b(13)----------9----9------9------9------9-|
D|--------------------------------------------------------------------------------------11-----11-----11-----11---|
A|----------------------------------------------------------------------------------------------------------------|
E|----------------------------------------------------------------------------------------------------------------|

e|-------------------------------------------------------------12-12----------------12-12-----------------|
B|-------9--------9--------9-----------------------------------------9-9-10-10------------9-9-10-10-12-12-|
G|----------------------------11~p9--11~-11~--9/--11~-11~--9/------------------9-9------------------------|
D|-9h11-----9h11-----9h11---------------------------------------------------------------------------------|
A|--------------------------------------------------------------------------------------------------------|
E|--------------------------------------------------------------------------------------------------------|

e|-0-0-12b--0-0-12b--0-0-12b--0-0-12b---7-7-5-5-4-4-0--5--5-4-4-2-2-0-0--------------|
B|-----------------------------------------------------------------------7~-5~-4~-5~-|
G|-----------------------------------------------------------------------------------|
D|-----------------------------------------------------------------------------------|
A|-----------------------------------------------------------------------------------|
E|-----------------------------------------------------------------------------------|

Guitar 2
e|--------------------------------------------------------------------|
B|--------------------------------------------------------------------|
G|-6-6-6-6-6-6-6-6-------------------2-2-2-2-2-2-2-2--4-4-4-4-4-4-4-4-| X2
D|-6-6-6-6-6-6-6-6--2-2-2-2-2-2-2-2--2-2-2-2-2-2-2-2--4-4-4-4-4-4-4-4-|
A|-4-4-4-4-4-4-4-4--2-2-2-2-2-2-2-2--0-0-0-0-0-0-0-0--2-2-2-2-2-2-2-2-|
E|------------------0-0-0-0-0-0-0-0-----------------------------------|

VERSE 2

Guitar 1
e|------------------------------------|
B|-----------4~-5~--------5~----4~----|
G|-6~--------------6~-----------------| X2
D|------------------------------------|
A|------------------------------------|
E|------------------------------------|

Guitar 2 (is silent)


PRE-CHORUS 2

Guitar 1
e|---------------------|
B|-5~--------7~--------|
G|---------------------|
D|---------------------|
A|---------------------|
E|---------------------|

Guitar 2 (fades in with feedback)


(play CHORUS again)


POST-CHORUS 2

Guitar 1
e|---------------------------------0-0--0--0-0--0--0-0--0--0-0--0--5-5--5--5-5--5--5-5--5--5-5--5--5-5--5-|
B|---------------------------------2-2--2--2-2--2--2-2--2--2-2--2--2-2--2--2-2--2--2-2--2--2-2--2--2-2--2-|
G|-6-6--6--6-6--6--6-6--6--6-6--6-------------------------------------------------------------------------|
D|-x-x--x--x-x--x--x-x--x--x-x--x-------------------------------------------------------------------------|
A|-4-4--4--4-4--4--4-4--4--4-4--4-------------------------------------------------------------------------|
E|--------------------------------------------------------------------------------------------------------|
pm . . . . . . . . . . . . . . . . . . . . . . . . . .


e|-4-4--4--4-4--4--4-4--4--4-4--4--------|
B|-2-2--2--2-2--2--2-2--2--2-2--2--5--4--|
G|---------------------------------------|
D|---------------------------------------|
A|---------------------------------------|
E|---------------------------------------|
pm . . . . . . . .

e|---------------------------------0-0--0--0-0--0--0-0--0--0-0--0--5-5--5--5-5--5--5-5--5--5-5--5--5-5--5-|
B|---------------------------------2-2--2--2-2--2--2-2--2--2-2--2--2-2--2--2-2--2--2-2--2--2-2--2--2-2--2-|
G|-6-6--6--6-6--6--6-6--6--6-6--6-------------------------------------------------------------------------|
D|-x-x--x--x-x--x--x-x--x--x-x--x-------------------------------------------------------------------------|
A|-4-4--4--4-4--4--4-4--4--4-4--4-------------------------------------------------------------------------|
E|--------------------------------------------------------------------------------------------------------|
pm . . . . . . . . . . . . . . . . . . . . . . . . . .


Guitar 2
e|---------------------------------0-0--0--0-0--0--0-0--0--0-0--0--5-5--5--5-5--5--5-5--5--5-5--5--5-5--5-|
B|---------------------------------2-2--2--2-2--2--2-2--2--2-2--2--2-2--2--2-2--2--2-2--2--2-2--2--2-2--2-|
G|-6-6--6--6-6--6--6-6--6--6-6--6-------------------------------------------------------------------------|
D|-x-x--x--x-x--x--x-x--x--x-x--x-------------------------------------------------------------------------|
A|-4-4--4--4-4--4--4-4--4--4-4--4-------------------------------------------------------------------------|
E|--------------------------------------------------------------------------------------------------------|
pm . . . . . . . . . . . . . . . . . . . . . . . . . .


e|-4-4--4--4-4--4--4-4--4--4-4--4--4-4--4-|
B|-2-2--2--2-2--2--2-2--2--2-2--2--2-2--2-|
G|----------------------------------------|
D|----------------------------------------|
A|----------------------------------------|
E|----------------------------------------|
pm . . . . . . . . . .

e|---------------------------------0-0--0--0-0--0--0-0--0--0-0--0--5-5--5--5-5--5--5-5--5--5-5--5--5-5--5-|
B|---------------------------------2-2--2--2-2--2--2-2--2--2-2--2--2-2--2--2-2--2--2-2--2--2-2--2--2-2--2-|
G|-6-6--6--6-6--6--6-6--6--6-6--6-------------------------------------------------------------------------|
D|-x-x--x--x-x--x--x-x--x--x-x--x-------------------------------------------------------------------------|
A|-4-4--4--4-4--4--4-4--4--4-4--4-------------------------------------------------------------------------|
E|--------------------------------------------------------------------------------------------------------|
pm . . . . . . . . . . . . . . . . . . . . . . . . . .


(play INTRO again)
(play BRIDGE again)

END WITH:

Guitar 1
e|----------------|
B|----------------|
G|-6~-6~-6~-6~-6/-|
D|----------------|
A|----------------|
E|----------------|

Guitar 2
e|-------------|
B|-------------|
G|-6-6-6-6--6/-|
D|-6-6-6-6--6/-|
A|-4-4-4-4--4/-|
E|-------------|

2. The Press Corpse

Thanks to Shaun Amos from the People United

x=muted note
^=palm mute


Intro
e|-----------|
B|-----------|
G|-333333333-|
D|-333333333-|
A|-111111111-|
E|-----------|

Verse
e|----------------------------------|  |----------------------------------|
B|----------------------------------|  |----------------------------------|
G|-33-333-333-333-366-666-6---------|  |----------------------------------|
D|-33-333-333-333-366-666-666-666-6-|2x|-----------------3333333366666666-|
A|-11-111-111-111-144-444-466-666-6-|  |-44444444444444441111111144444444-|
E|-------------------------44-444-4-|  |-2222222222222222-----------------|

e|----------------------------------|
B|----------------------------------|
G|-33-333-333-333-366-666-6---------|
D|-33-333-333-333-366-666-666-666-6-|2x
A|-11-111-111-111-144-444-466-666-6-|
E|-------------------------44-444-4-|

Pre Chorus
e|----------------------------------|-----------------------------------|
B|----------------------------------|-----------------------------------|
G|-----33-3----33-3----33-3---------|-----33-3----33-3----33-3----------|
D|-44-433-344-433-344-433-3---------|-44-433-344-433-344-433-3----------|
A|-44-411-144-411-144-411-166666666-|-44-411-144-411-144-411-16-6-6-666-|
E|-22-2----22-2----22-2----44444444-|-22-2----22-2----22-2----4-4-4-444-|

Chorus
(Guitar 1)
e|----------------------------------|----------------------------------|
B|----------------------------------|----------------------------------|
G|----------------------------------|----------------------------------|
D|-33333333333333366666666666666666-|----------------------------------|2x
A|-11111111111111144444444444444444-|-66666666666666664444433466666666-|
E|----------------------------------|-44444444444444442222211244444444-|

e|-----------|
B|-----------|
G|-----------|
D|-----------|
A|-888888888-|
E|-666666666-|

(Guitar 2)
e|-66666666666664466666666666666688-|-66666666666666446666664466666644-|
B|----------------------------------|----------------------------------|
G|----------------------------------|----------------------------------|
D|----------------------------------|----------------------------------|2x
A|----------------------------------|----------------------------------|
E|----------------------------------|----------------------------------|

e|-666666666-|
B|-----------|
G|-----------|
D|-----------|
A|-----------|
E|-----------|


Verse
e|----------------------------------|  |----------------------------------|
B|----------------------------------|  |----------------------------------|
G|-33-333-333-333-366-666-6---------|  |----------------------------------|
D|-33-333-333-333-366-666-666-666-6-|2x|-----------------3333333366666666-|
A|-11-111-111-111-144-444-466-666-6-|  |-44444444444444441111111144444444-|
E|-------------------------44-444-4-|  |-2222222222222222-----------------|

e|----------------------------------|
B|----------------------------------|
G|-33-333-333-333-366-666-6---------|
D|-33-333-333-333-366-666-666-666-6-|2x
A|-11-111-111-111-144-444-466-666-6-|
E|-------------------------44-444-4-|

Pre Chorus
e|----------------------------------|-----------------------------------|
B|----------------------------------|-----------------------------------|
G|-----33-3----33-3----33-3---------|-----33-3----33-3----33-3----------|
D|-44-433-344-433-344-433-3---------|-44-433-344-433-344-433-3----------|
A|-44-411-144-411-144-411-166666666-|-44-411-144-411-144-411-16-6-6-666-|
E|-22-2----22-2----22-2----44444444-|-22-2----22-2----22-2----4-4-4-444-|

Chorus
(Guitar 1)
e|----------------------------------|----------------------------------|
B|----------------------------------|----------------------------------|
G|----------------------------------|----------------------------------|
D|-33333333333333366666666666666666-|----------------------------------|2x
A|-11111111111111144444444444444444-|-66666666666666664444433466666666-|
E|----------------------------------|-44444444444444442222211244444444-|

e|-----------|
B|-----------|
G|-----------|
D|-----------|
A|-888888888-|
E|-666666666-|

(Guitar 2)
e|-66666666666664466666666666666688-|-66666666666666446666664466666644-|
B|----------------------------------|----------------------------------|
G|----------------------------------|----------------------------------|
D|----------------------------------|----------------------------------|2x
A|----------------------------------|----------------------------------|
E|----------------------------------|----------------------------------|

e|-666666666-|
B|-----------|
G|-----------|
D|-----------|
A|-----------|
E|-----------|

Bridge
e|-----------------4---2---1---2----|-----------------1h2p1h2h4p2p1h2--|
B|----------------------------------|----------------------------------|
G|----------------------------------|----------------------------------|
D|-3~-------------------------------|-3~-------------------------------|
A|-1~-------------------------------|-1~-------------------------------|
E|----------------------------------|----------------------------------|

Bridge Pt2
(Guitar 1)
e|----------------------------------|
B|----------------------------------|
G|----------------------------------|
D|-3-3-333-3-3-333-3-3-333-3-3-333--|2x
A|-1-1-111-1-1-111-1-1-111-1-1-111--|
E|----------------------------------|

(Guitar 2)
e|-66666666666664466666666666666688-|
B|----------------------------------|
G|----------------------------------|
D|----------------------------------|2x
A|----------------------------------|
E|----------------------------------|

Bridge Pt3
e|-2---------------1----------------|-2---------------1-------6---9----|
B|------------------------1---2-----|----------------------------------|
G|----------------------------------|----------------------------------|
D|----------------------------------|----------------------------------|
A|----------------------------------|----------------------------------|
E|----------------------------------|----------------------------------|

Bridge Pt4
e|-2-1-----2-1----|  |-2-1-----2-1---|
B|-----4-1-----1-2|  |-----4-1-----1-|
G|----------------|3x|---------------|
D|----------------|  |---------------|
A|----------------|  |---------------|
E|----------------|  |---------------|

Chorus
(Guitar 1)
e|----------------------------------|----------------------------------|
B|----------------------------------|----------------------------------|
G|----------------------------------|----------------------------------|
D|-33333333333333366666666666666666-|----------------------------------|2x
A|-11111111111111144444444444444444-|-66666666666666664444433466666666-|
E|----------------------------------|-44444444444444442222211244444444-|

e|-----------|
B|-----------|
G|-----------|
D|-----------|
A|-888888888-|
E|-666666666-|

(Guitar 2)
e|-66666666666664466666666666666688-|-66666666666666446666664466666644-|
B|----------------------------------|----------------------------------|
G|----------------------------------|----------------------------------|
D|----------------------------------|----------------------------------|2x
A|----------------------------------|----------------------------------|
E|----------------------------------|----------------------------------|

e|-666666666-|
B|-----------|
G|-----------|
D|-----------|
A|-----------|
E|-----------|

3. Emigre(Exodus)
Thanks to distorted620@gmail.com for most of this tab.

Intro:
E|-4-4-4-4-4-4-4-4---4-4-4-4---7-7---7-7----|
B|----------------------7-----------7-----7-|
G|------------------------------------------|
D|------------------------------------------|x4
A|------------------------------------------|
E|------------------------------------------|
P.M. . . . . . . .   . ... .   . .  .. .  .

E|---|
B|---|
G|---|
D|-6*|
A|-6*|
E|-4*|


Pre-Versex4
-------------------------------------------------|
-------------------------------------------------|
-------6-6/8--4-4--------------------------------|
--6-6--6-6/8--4-4--4-4---------------------------|
--6-6--4-4/6--2-2--4-4---------------------------|
--4-4--------------2-2---------------------------|

-------------------------------------------------|
-------------------------------------------------|
-------8-8/6--4-4--------------------------------|
--6-6--8-8/6--4-4--4-4---------------------------|
--6-6--6-6/4--2-2--4-4---------------------------|
--4-4--------------2-2---------------------------|  x2

Verse 1: x 4

--------|
--------|
--------|
-66-6666|x3
-44-4444|
--------|
 .. ....

----|
----|
-6-6|
-6-6|
-4-4|
----|

Pre-Chorus
-------------------------------------------------|
-------------------------------------------------|
-4~-4--6--8--9--11-13-15-16~-16-15-13-11---------|
-4~-4--6--8--9--11-13-15-16~-16-15-13-11---------|
-2~-2--4--6--7--9--11-13-14~-14-13-11-9----------|
-------------------------------------------------|

Chorus-x4

-------------------------------------------------|
-------------------------------------------------|
-------6-6/8--4-4--------------------------------|
--6-6--6-6/8--4-4--4-4---------------------------|
--6-6--4-4/6--2-2--4-4---------------------------|
--4-4--------------2-2---------------------------|

-------------------------------------------------|
-------------------------------------------------|
-------8-8/6--4-4--------------------------------|
--6-6--8-8/6--4-4--4-4---------------------------|
--6-6--6-6/4--2-2--4-4---------------------------|
--4-4--------------2-2---------------------------|

Verse 2:

--------|
--------|
--------|
-66-6666|x3
-44-4444|
--------|
 .. ....

--------|
--------|
-6-6----|
-6-6----|
-4-4----|
--------|

Pre-Chorus
-------------------------------------------------|
-------------------------------------------------|
-4~-4--6--8--9--11-13-15-16~-16-15-13-11---------|
-4~-4--6--8--9--11-13-15-16~-16-15-13-11---------|
-2~-2--4--6--7--9--11-13-14~-14-13-11-9----------|
-------------------------------------------------|

Chorus- x4
-------------------------------------------------|
-------------------------------------------------|
-------6-6/8--4-4--------------------------------|
--6-6--6-6/8--4-4--4-4---------------------------|
--6-6--4-4/6--2-2--4-4---------------------------|
--4-4--------------2-2---------------------------|

-------------------------------------------------|
-------------------------------------------------|
-------8-8/6--4-4--------------------------------|
--6-6--8-8/6--4-4--4-4---------------------------|
--6-6--6-6/4--2-2--4-4---------------------------|
--4-4--------------2-2---------------------------|  x2

Bridge

-------------------------------------------------|
-------------------------------------------------|
------------------------4-----6--8--4~-----------|
-6-6-6-6-6-6-6-6-6------4--4--6--8--4~-----------|
-6-6-6-6-6-6-6-6-6------2--4--4--6--2~-----------|
-4-4-4-4-4-4-4-4-4---------2---------------------|

-------------------------------------------------|
-------------------------------------------------|
------------------------4-----8--6--4~-----------|
-6-6-6-6-6-6-6-6-6------4--4--8--6--4~-----------|
-6-6-6-6-6-6-6-6-6------2--4--6--4--2~-----------|
-4-4-4-4-4-4-4-4-4---------2---------------------|  x2

Outro:
-4-4-4-4-4-4-4-4---4-4-4-4---7-7---7-7-----------|
----------------------7-----------7-----7--------|
-------------------------------------------------|
-------------------------------------------------|
-------------------------------------------------|
-------------------------------------------------|
P.M****************************************

Chorus
-------------------------------------------------|
-------------------------------------------------|
-------6-6/8--4-4--------------------------------|
--6-6--6-6/8--4-4--4-4---------------------------|
--6-6--4-4/6--2-2--4-4---------------------------|
--4-4--------------2-2---------------------------|

-------------------------------------------------|
-------------------------------------------------|
-------8-8/6--4-4--------------------------------|
--6-6--8-8/6--4-4--4-4---------------------------|
--6-6--6-6/4--2-2--4-4---------------------------|
--4-4--------------2-2---------------------------|  x2

This is the second time, we will not fall in line!

4. A Project For A New American Century

Intro
E|---------------------------|
B|---------------------------|
G|---------------------------|
D|8-68-686-8-68-686-888688868|
A|8-68-686-8-68-686-888688868|
E|6-46-464-6-46-464-666466646|

Intro Part 2 x2
Lead
E|11-------22------11-------22--11--|
B|--22-------22------22-------22--44|
G|----33-------33------33-----------|
D|------44-------44------44---------|
A|----------------------------------|
E|----------------------------------|

E|11-------22-----------------------|
B|--22-------22---------------------|
G|----33-------33---6-66-666--------|
D|------44-------44-6-66-6666-66-666|
A|------------------4-44-4446-66-666|
E|--------------------------4-44-444|

Rhythm
E|------------------------------|
B|------------------------------|
G|3-----------3-----------------|
D|3(x8)-4-----3(x8)-4-----6-----|
A|1-----4(x8)-1-----4(x4)-6(x4)-|
E|------2-----------2-----4-----|

Verse x2
E|----------------------------------|
B|----------------------------------|
G|3------3-3-3------6-66-666--------|
D|3(x28)-3-3-3(x16)-6-66-6666-66-666|
A|1------1-1-1------4-44-4446-66-666|
E|--------------------------4-44-444|
  .          .

Chorus
E|------------------------------------------------------------|
B|------------------------------------------------------------|
G|------------------6---------------------------6-------------|
D|8-8--------4------6(x16)-6------8------4------6(x16)-6------|
A|8-8--------4(x16)-4------6(x16)-8(x16)-4(x16)-4------6(x16)-|
E|6-6--------2-------------4------6------2-------------4------|

Post-Chorus
E|---------|
B|---------|
G|---------|
D|6-66-6666|
A|6-66-6666|
E|4-44-4444|

Bridge
Lead
E|11-------22------11-------22--11--|
B|--22-------22------22-------22--44|
G|----33-------33------33-----------|
D|------44-------44------44---------|
A|----------------------------------|
E|----------------------------------|

E|11-------22-----------------------|
B|--22-------22---------------------|
G|----33-------33---6-66-666--------|
D|------44-------44-6-66-6666-66-666|
A|------------------4-44-4446-66-666|
E|--------------------------4-44-444|

Rhythm
E|------------------------------|
B|------------------------------|
G|3-----------3-----------------|
D|3(x8)-4-----3(x8)-4-----6-----|
A|1-----4(x8)-1-----4(x4)-6(x4)-|
E|------2-----------2-----4-----|

Verse x2
E|----------------------------------|
B|----------------------------------|
G|3------3-3-3------6-66-666--------|
D|3(x28)-3-3-3(x16)-6-66-6666-66-666|
A|1------1-1-1------4-44-4446-66-666|
E|--------------------------4-44-444|

Some Other Part
x2
E|-------------------------------------------------------|
B|-------------------------------------------------------|
G|----6-6-8-8-------8----------6-6-8-8-------8-----6-----|
D|4-4-6-6-8-8-------8(x16)-4-4-6-6-8-8-------8(x8)-6(x8)-|
A|4-4-4-4-6-6-6h8p6-6------4-4-4-4-6-6-6h8p6-6-----4-----|
E|2-2----------------------2-2---------------------------|

Part After That
E|-----------------------------------|
B|-----------------------------------|
G|-------8---------------------------|
D|4------8(x16)-8------6------4------|
A|4(x16)-6------8(x16)-6(x16)-4(x32)-|
E|2-------------6------4------2------|

Clapping Part
E|----|
B|----|
G|----|
D|8-8-|
A|8-8-|
E|6-6-|

End of Clapping Part
E|-------|
B|-------|
G|-------|
D|6------|
A|6(x32)-|
E|4------|

Chorus
E|------------------------------------------------------------|
B|------------------------------------------------------------|
G|------------------6---------------------------6-------------|
D|8-8--------4------6(x16)-6------8------4------6(x16)-6------|
A|8-8--------4(x16)-4------6(x16)-8(x16)-4(x16)-4------6(x16)-|
E|6-6--------2-------------4------6------2-------------4------|

Post-Chorus
E|---------|
B|---------|
G|---------|
D|6-66-6666|
A|6-66-6666|
E|4-44-4444|

Outro
Lead
E|11-------22------11---------------|
B|--22-------22------22-------------|
G|----33-------33------33-----------|
D|------44-------44------44-4~------|
A|--------------------------4~------|
E|--------------------------2~------|

Rhythm
E|----------------------------------|
B|----------------------------------|
G|3-3-3-3---------3-3-3-3-----------|
D|3-3-3-3-4-4-4-4-3-3-3-3--4~-------|
A|1-1-1-1-4-4-4-4-1-1-1-1--4~-------|
E|--------2-2-2-2----------2~-------|


5. Hymn For The Dead


Intro
Lead
E|-----------------------------||----------------------------|
B|3-3-2-3-2-3-2-3-2-3-2-3-2----||3-3-2-3-2-3-2-3-2-3-2-3-2-5~|
G|--------------------------4-2||----------------------------|
D|-----------------------------||----------------------------|
A|-----------------------------||----------------------------|
E|-----------------------------||----------------------------|

E|-----------------------------||----------------|
B|3-3-2-3-2-3-2-3-2-3-2-3-2----||3-3-2-3-2-3-2---|
G|--------------------------4-2||--------------2~|
D|-----------------------------||----------------|
A|-----------------------------||----------------|
E|-----------------------------||----------------|

Rhythm
E|-----------------------------------|
B|-----------------------------------|
G|44444444------------------7777-----|
D|44444444-5555555555555555-7777-7777|x2
A|22222222-5555555555555555-5555-7777|
E|---------3333333333333333------5555|

Verse Part 1
E|---------------------------------|  |------------|
B|3-3-3332-3-3-3332-8-8-8-8--------|  |------------|
G|4-4-4442-4-4-4442-7-7-7-7--------|  |------------|
D|4-4-4442-4-4-4442-5-5-5-5-7-7----|x2|-55-55-55-55|
A|--------------------------5-5-7-7|  |-55-55-55-55|
E|------------------------------5-5|  |-33-33-33-33|

Verse Part 2
E|---------------||------------||5~---|
B|3-3-3-3-3-3-3-3||------------||5~---|
G|4-4-4-4-4-4-4-4||------------||4~---|
D|4-4-4-4-4-4-4-4||-55-55-55-55||2~---|
A|---------------||-55-55-55-55||-----|
E|---------------||-33-33-33-33||-----|

Chorus
E|-----------------------------------|
B|-----------------------------------|
G|44444444------------------7777-----|
D|44444444-5555555555555555-7777-7777|x2
A|22222222-5555555555555555-5555-7777|
E|---------3333333333333333------5555|

Bridge
Lead
E|-----------------------------||----------------------------|
B|3-3-2-3-2-3-2-3-2-3-2-3-2----||3-3-2-3-2-3-2-3-2-3-2-3-2-5~|
G|--------------------------4-2||----------------------------|
D|-----------------------------||----------------------------|
A|-----------------------------||----------------------------|
E|-----------------------------||----------------------------|

E|-----------------------------||----------------|
B|3-3-2-3-2-3-2-3-2-3-2-3-2----||3-3-2-3-2-3-2---|
G|--------------------------4-2||--------------2~|
D|-----------------------------||----------------|
A|-----------------------------||----------------|
E|-----------------------------||----------------|

Rhythm
E|-----------------------------------|
B|-----------------------------------|
G|44444444------------------7777-----|
D|44444444-5555555555555555-7777-7777|x2
A|22222222-5555555555555555-5555-7777|
E|---------3333333333333333------5555|

Verse Part 1
E|---------------------------------|  |------------|
B|3-3-3332-3-3-3332-8-8-8-8--------|  |------------|
G|4-4-4442-4-4-4442-7-7-7-7--------|  |------------|
D|4-4-4442-4-4-4442-5-5-5-5-7-7----|x2|-55-55-55-55|
A|--------------------------5-5-7-7|  |-55-55-55-55|
E|------------------------------5-5|  |-33-33-33-33|

Verse Part 2
E|---------------||------------||5~---|
B|3-3-3-3-3-3-3-3||------------||5~---|
G|4-4-4-4-4-4-4-4||------------||4~---|
D|4-4-4-4-4-4-4-4||-55-55-55-55||2~---|
A|---------------||-55-55-55-55||-----|
E|---------------||-33-33-33-33||-----|

Chorus
E|-----------------------------------|
B|-----------------------------------|
G|44444444------------------7777-----|
D|44444444-5555555555555555-7777-7777|x2
A|22222222-5555555555555555-5555-7777|
E|---------3333333333333333------5555|

Interlude
Rhythm
E|----------------------------------|
B|----------------------------------|
G|----------------------------------|
D|555555555555-7777-9999999999999999
A|555555555555-7777-9999999999999999
E|333333333333-5555-7777777777777777

Lead
E|-----------------------------------|
B|--------------------33------335522-|
G|-----------------------------------|
D|-----------------------------------|
A|-----------------------------------|
E|-----------------------------------|

cont.

Rhythm
E|----------------------------------|
B|----------------------------------|
G|----------------------------------|
D|555555555555-7777-9~--------------|
A|555555555555-7777-9~--------------|
E|333333333333-5555-7~--------------|

Interlude Continued
E|--------2-----------------------2-------------0|
B|----------3-----------3-----3-----3---------2--|
G|----4-------4-------0-----2---2-----2-----2----|
D|--4---4-----------0-----0---------------2------|x2
A|2---------------2---------------------0--------|
E|--------------3--------------------------------|

Rhythm(2nd Time)
E|-----------------------------------------------|
B|-----------------------------------------------|
G|4~----------------------7~---------------------|
D|4~------------5~--------7~------------7~-------|
A|2~------------5~--------5~------------7~-------|
E|--------------3~----------------------5~-------|

Trumpet Fill(Thanks To The CSharpMasters Guitar Pro Tab)
E|7~----------------------10~--------------------|
B|--------------8~----------------------10~------|
G|-----------------------------------------------|
D|-----------------------------------------------|
A|-----------------------------------------------|
E|-----------------------------------------------|

Trumpet Solo
Rhythm
E|-----------------------------------|
B|-----------------------------------|
G|-----------------------------------|
D|44444444----------77777777---------|
A|22222222-55555555-55555555-77777777|
E|---------33333333----------55555555|
  ........ ........ ........ ........

Trumpet Fill(Thanks To The CSharpMasters Guitar Pro Tab)
E|1010-10-10-9----1010-10-10-9----1010-10-10-9---|
B|-------------12--------------10----------------|
G|--------------------------------------------11~|
D|-----------------------------------------------|
A|-----------------------------------------------|
E|-----------------------------------------------|

E|---------------14h15p14-14---------------|
B|15-15-15-14-14-------------17-15~-14-12~-|
G|-----------------------------------------|
D|-----------------------------------------|
A|-----------------------------------------|
E|-----------------------------------------|

Next Part of Interlude
Lead
E|--------------------------------|
B|--3322----3322----3322----332255|
G|44----4444----4444----4444------|
D|--------------------------------|x2
A|--------------------------------|
E|--------------------------------|
  ................................

E|-----------------------------||----------------------------|
B|3-3-2-3-2-3-2-3-2-3-2-3-2----||3-3-2-3-2-3-2-3-2-3-2-3-2-5~|
G|--------------------------4-2||----------------------------|
D|-----------------------------||----------------------------|
A|-----------------------------||----------------------------|
E|-----------------------------||----------------------------|
  . . . . . . . . . . . . . . .   . . . . . . . . . . . . . .

E|--------------------------------|
B|3-3-3332-3-3-3332-3-3-2-3-2-3-2~|
G|4-4-4442-4-4-4442---------------|
D|4-4-4442-4-4-4442---------------|
A|--------------------------------|
E|--------------------------------|

Rhythm
E|---------------------------------|
B|---------------------------------|
G|4----------------7---------------|
D|4-444444-------5-7-777777-------7|x4
A|2-222222-5555555-5-555555-7777777|
E|---------3333333----------5555555|
    ...... ......    ...... ......

Changed up rhythm
E|-----------------------------------||----------------------------|
B|-----------------------------------||----------------------------|
G|4------4----------7------7---------||4----------------7----------|
D|4-444444-5------5-7-777777-7------7||4-444444-------5-7-777777-7~|
A|2-222222-5-555555-5-555555-7-777777||2-222222-5555555-5-555555-7~|
E|---------3-333333----------5-555555||---------3333333----------5~|
    .....    .....    .....    .....

Chorus
E|-----------------------------------|
B|-----------------------------------|
G|44444444------------------7777-----|
D|44444444-5555555555555555-7777-7777|x4
A|22222222-5555555555555555-5555-7777|
E|---------3333333333333333------5555|

Lead comes in 3rd time
E|-----------------------------||----------------------------|
B|3-3-2-3-2-3-2-3-2-3-2-3-2----||3-3-2-3-2-3-2-3-2-3-2-3-2-5~|
G|--------------------------4-2||----------------------------|
D|-----------------------------||----------------------------|x2
A|-----------------------------||----------------------------|
E|-----------------------------||----------------------------|

Ending
E|------------------|
B|3~----2~---(2)/3-0|
G|------------------|
D|------------------|
A|------------------|
E|------------------|

Rhythm ending
E|-----|
B|-----|
G|4~---|
D|4~---|
A|2~---|
E|-----|

6. This Is The End(For You My Friend)

I tabbed this out on guitar pro so this tab is gonna be very detailed

Guitar 1

Intro

                S S S S E  E  S S E  S S E     S S S S E  Q    E   E  E
E||---------||--1-1-1-1-1-------------------|--1-1-1-1-1-------1s--6-----|
B||---------||--2-2-2-2-2-------1-1--2-2-2--|--2-2-2-2-2-----------------|
G||*-------*||--3-3-3-3-3-------2-2--3-3-3--|--3-3-3-3-3-----------------|
D||*-------*||--3-3-3-3-3-------3-3--4-4-4--|--3-3-3-3-3-----------------|
A||---------||--1-1-1-1-1-------3-3--4-4-4--|--1-1-1-1-1-----------------|
E||---------||------------------1-1--2-2-2--|----------------------------|


  S S S S E  E  S S E  S S E     S S S S E  Q    E   E  E
--1-1-1-1-1-------------------|--1-1-1-1-1-------1s--6-----|
--2-2-2-2-2-------1-1--2-2-2--|--2-2-2-2-2-----------------|
--3-3-3-3-3-------2-2--3-3-3--|--3-3-3-3-3-----------------|
--3-3-3-3-3-------3-3--4-4-4--|--3-3-3-3-3-----------------|
--1-1-1-1-1-------3-3--4-4-4--|--1-1-1-1-1-----------------|
------------------1-1--2-2-2--|----------------------------|


Verse

  S S S S E  E  S S E  S S E     S S S S E  Q    E   E  E
--1-1-1-1-1-------------------|--1-1-1-1-1-------1s--6-----|
--2-2-2-2-2-------1-1--2-2-2--|--2-2-2-2-2-----------------|
--3-3-3-3-3-------2-2--3-3-3--|--3-3-3-3-3-----------------|
--3-3-3-3-3-------3-3--4-4-4--|--3-3-3-3-3-----------------|
--1-1-1-1-1-------3-3--4-4-4--|--1-1-1-1-1-----------------|
------------------1-1--2-2-2--|----------------------------|


                                              PM PM PM PM PM PM
  S S S S E  E  S S E  S S E     S S S S E  S S  S  E  S  S  E.
--1-1-1-1-1-------------------|--1-1-1-1-1-----------------------|
--2-2-2-2-2-------1-1--2-2-2--|--2-2-2-2-2-----------------------|
--3-3-3-3-3-------2-2--3-3-3--|--3-3-3-3-3----3------------------|
--3-3-3-3-3-------3-3--4-4-4--|--3-3-3-3-3----3--3--3--3--4--4---|
--1-1-1-1-1-------3-3--4-4-4--|--1-1-1-1-1----1--3--3--3--4--4---|
------------------1-1--2-2-2--|------------------1--1--1--2--2---|


  S S S S E  E  S S E  S S E     S S S S E  Q    E   E  E
--1-1-1-1-1-------------------|--1-1-1-1-1-------1s--6-----|
--2-2-2-2-2-------1-1--2-2-2--|--2-2-2-2-2-----------------|
--3-3-3-3-3-------2-2--3-3-3--|--3-3-3-3-3-----------------|
--3-3-3-3-3-------3-3--4-4-4--|--3-3-3-3-3-----------------|
--1-1-1-1-1-------3-3--4-4-4--|--1-1-1-1-1-----------------|
------------------1-1--2-2-2--|----------------------------|


                                                        Pre-Chorus

  S S S S E  E  S S E  S S E     S S S S E  E  H           W
--1-1-1-1-1-------------------|--1-1-1-1-1--------------|-------------------|
--2-2-2-2-2-------1-1--2-2-2--|--2-2-2-2-2--7-----------|--2----------------|
--3-3-3-3-3-------2-2--3-3-3--|--3-3-3-3-3--8--L--------|--3----------------|
--3-3-3-3-3-------3-3--4-4-4--|--3-3-3-3-3--8--L--------|--4----------------|
--1-1-1-1-1-------3-3--4-4-4--|--1-1-1-1-1--6--L--------|--4----------------|
------------------1-1--2-2-2--|-------------------------|--2----------------|


                   Chorus

  W                   E  E  E  E  E  E  E  E     E  E  E  E  E  E  E  E
-------------------|--------------------------|--------------------------|
-------------------|--------------------------|--------------------------|
-------------------|--6--6--6--6--------------|--3--3--3-----------------|
--3----------------|--6--6--6--6--6--6--6--6--|--3--3--3--3--4--4--4--4--|
--3----------------|--4--4--4--4--6--6--6--6--|--1--1--1--3--4--4--4--4--|
--1----------------|--------------4--4--4--4--|-----------1--2--2--2--2--|


  E  E  E  E  E  E  E  E     E  E  E  E  E  E  S S S S
--------------------------|----------------------------|
--------------------------|----------------------------|
--6--6--6--6--------------|--3--3--3-------------------|
--6--6--6--6--6--6--6--6--|--3--3--3--3--4--4--x-x-x-x-|
--4--4--4--4--6--6--6--6--|--1--1--1--3--4--4--x-x-x-x-|
--------------4--4--4--4--|-----------1--2--2--x-x-x-x-|


  E  S S E  E  S  S  S  E  S  S S    E  E  E  E  E  E  S S S S
----------------------------------|----------------------------|
----------------------------------|----------------------------|
--6--6-6-6-----5h-6p-5s-3---------|--3--3--3--3----------------|
--6--6-6-6-----------------6p-4---|--3--3--3--3--4--4--x-x-x-x-|
--4--4-4-4------------------------|--1--1--1--1--4--4--x-x-x-x-|
----------------------------------|--------------2--2--x-x-x-x-|


                                   Pre- Solo

                                     PM PM PM PM PM PM   PM PM   PM PM PM
  E  S S E  E  S  S  S  E  S  S S    S  S  S  S  E  E  S S  S  S S  S  E
----------------------------------|---------------------------------------|
----------------------------------|---------------------------------------|
--6--6-6-6-----5h-6p-5s-3---------|--3--3--3--3--3--3---------------------|
--6--6-6-6-----------------6p-4---|--3--3--3--3--3--3----3--3----4--4--4--|
--4--4-4-4------------------------|--1--1--1--1--1--1----3--3----4--4--4--|
----------------------------------|----------------------1--1----2--2--2--|


                              Solo

  PM PM PM PM PM PM
  S  S  S  S  E  E  H           Q     Q     Q     Q
-----------------------------|--------------------------|
-----------------------------|--6-----6-----6-----6-----|
--3--3--3--3--3--3-----------|--8b----8b----8b----8b----|
--3--3--3--3--3--3-----------|--------------------------|
--1--1--1--1--1--1-----------|--------------------------|
-----------------------------|--------------------------|


  S E  E  S S S H            S E  E  S E  S E  E  S E
--------------------------|----------------------------|
--------------------------|--6------------6------------|
--6----6----6---8~--------|----6-----6------6-----6----|
----8-----8---8-----------|-------8----8-------8----8--|
--------------------------|----------------------------|
--------------------------|----------------------------|


                                 Verse 2

  S S S S S S S S S S S S  Q        Q     E  E  H
--------------------------------|--13s----1--------------|
--6-6-6-6-7-7-7-7-9-9-9-9-11----|------------------------|
--------------------------------|------------------------|
--------------------------------|------------------------|
--------------------------------|------------------------|
--------------------------------|------------------------|


  S S S S E  Q    E   E  E     S S S S E  E  S S E  S S E
--1-1-1-1-1-------1s--6-----|--1-1-1-1-1-------------------|
--2-2-2-2-2-----------------|--2-2-2-2-2-------1-1--2-2-2--|
--3-3-3-3-3-----------------|--3-3-3-3-3-------2-2--3-3-3--|
--3-3-3-3-3-----------------|--3-3-3-3-3-------3-3--4-4-4--|
--1-1-1-1-1-----------------|--1-1-1-1-1-------3-3--4-4-4--|
----------------------------|------------------1-1--2-2-2--|


               PM PM PM PM PM PM
  S S S S E  S S  S  E  S  S  E.     S S S S E  E  S S E  S S E
--1-1-1-1-1-----------------------|--1-1-1-1-1-------------------|
--2-2-2-2-2-----------------------|--2-2-2-2-2-------1-1--2-2-2--|
--3-3-3-3-3----3------------------|--3-3-3-3-3-------2-2--3-3-3--|
--3-3-3-3-3----3--3--3--3--4--4---|--3-3-3-3-3-------3-3--4-4-4--|
--1-1-1-1-1----1--3--3--3--4--4---|--1-1-1-1-1-------3-3--4-4-4--|
------------------1--1--1--2--2---|------------------1-1--2-2-2--|


  S S S S E  Q    E   E  E     S S S S E  E  S S E  S S E
--1-1-1-1-1-------1s--6-----|--1-1-1-1-1-------------------|
--2-2-2-2-2-----------------|--2-2-2-2-2-------1-1--2-2-2--|
--3-3-3-3-3-----------------|--3-3-3-3-3-------2-2--3-3-3--|
--3-3-3-3-3-----------------|--3-3-3-3-3-------3-3--4-4-4--|
--1-1-1-1-1-----------------|--1-1-1-1-1-------3-3--4-4-4--|
----------------------------|------------------1-1--2-2-2--|


                         Pre-Chorus

  S S S S E  E  H           W                   W
--1-1-1-1-1--------------|-------------------|-------------------|
--2-2-2-2-2--7-----------|--2----------------|-------------------|
--3-3-3-3-3--8--L--------|--3----------------|-------------------|
--3-3-3-3-3--8--L--------|--4----------------|--3----------------|
--1-1-1-1-1--6--L--------|--4----------------|--3----------------|
-------------------------|--2----------------|--1----------------|


  E  E  E  E  E  E  E  E     E  E  E  E  E  E  E  E
--------------------------|--------------------------|
--------------------------|--------------------------|
--6--6--6--6--------------|--3--3--3-----------------|
--6--6--6--6--6--6--6--6--|--3--3--3--3--4--4--4--4--|
--4--4--4--4--6--6--6--6--|--1--1--1--3--4--4--4--4--|
--------------4--4--4--4--|-----------1--2--2--2--2--|


  E  E  E  E  E  E  E  E     E  E  E  E  E  E  S S S S
--------------------------|----------------------------|
--------------------------|----------------------------|
--6--6--6--6--------------|--3--3--3-------------------|
--6--6--6--6--6--6--6--6--|--3--3--3--3--4--4--x-x-x-x-|
--4--4--4--4--6--6--6--6--|--1--1--1--3--4--4--x-x-x-x-|
--------------4--4--4--4--|-----------1--2--2--x-x-x-x-|


  E  S S E  E  S  S  S  E  S  S S    E  E  E  E  E  E  S S S S
----------------------------------|----------------------------|
----------------------------------|----------------------------|
--6--6-6-6-----5h-6p-5s-3---------|--3--3--3--3----------------|
--6--6-6-6-----------------6p-4---|--3--3--3--3--4--4--x-x-x-x-|
--4--4-4-4------------------------|--1--1--1--1--4--4--x-x-x-x-|
----------------------------------|--------------2--2--x-x-x-x-|


                                   Interlude

  E  S S E  E  S  S  S  E  S  S S               Q    Q    E  E  E  E
----------------------------------|-----|----|--1----1----1-----1-----|
----------------------------------|-----|----|---------------2-----2--|
--6--6-6-6-----5h-6p-5s-3---------|-----|----|------------------------|
--6--6-6-6-----------------6p-4---|-----|----|------------------------|
--4--4-4-4------------------------|-----|----|------------------------|
----------------------------------|-----|----|------------------------|


                           Bridge

  E  E  E  E  E  E  E  E     E  E  E  E  E  E  E  E
--1-----1-----1-----1-----|--------------------------|
-----2-----2-----2-----2--|--------------------------|
--------------------------|--3--3--3--3--------------|
--------------------------|--3--3--3--3--4--4--4--4--|
--------------------------|--1--1--1--1--4--4--4--4--|
--------------------------|--------------2--2--2--2--|


  E  E  E  E  E  E  E  E     E  E  E  E  E  E  E  E
--------------------------|--------------------------|
--------------------------|--------------------------|
--6--6--6--6--------------|--3--3--3--3--------------|
--6--6--6--6--3--3--3--3--|--3--3--3--3--4--4--4--4--|
--4--4--4--4--3--3--3--3--|--1--1--1--1--4--4--4--4--|
--------------1--1--1--1--|--------------2--2--2--2--|


  E  E  E  E  E  E  E  E     S S S S S S S S S S S S S S S S
--------------------------|--1---1---1---1-------------------|
--------------------------|--2---2---2---2---2---2---2---2---|
--6--6--6--6--------------|--3---3---3---3---3---3---3---3---|
--6--6--6--6--3--3--3--3--|--3---3---3---3---4---4---4---4---|
--4--4--4--4--3--3--3--3--|--1---1---1---1---4---4---4---4---|
--------------1--1--1--1--|------------------2---2---2---2---|


  S S S S S S S S S S S S S S S S    S S S S S S S S S S S S S S S S
----------------------------------|--1---1---1---1-------------------|
--6---6---6---6---1---1---1---1---|--2---2---2---2---2---2---2---2---|
--6---6---6---6---2---2---2---2---|--3---3---3---3---3---3---3---3---|
--6---6---6---6---3---3---3---3---|--3---3---3---3---4---4---4---4---|
--4---4---4---4---3---3---3---3---|--1---1---1---1---4---4---4---4---|
------------------1---1---1---1---|------------------2---2---2---2---|


                                   Pre-Chorus

  S S S S S S S S S S S S S S S S    W                   W
----------------------------------|-------------------|-------------------|
--6---6---6---6---1---1---1---1---|--2----------------|-------------------|
--6---6---6---6---2---2---2---2---|--3----------------|-------------------|
--6---6---6---6---3---3---3---3---|--4----------------|--3----------------|
--4---4---4---4---3---3---3---3---|--4----------------|--3----------------|
------------------1---1---1---1---|--2----------------|--1----------------|


Altered Chorus

  E  E  E  E  S  S  S  E  S E     E  E  E  E  E  E  E  E
-------------------------------|--------------------------|
-------------------------------|--------------------------|
--------6-----5h-6p-5s-3-------|--------3-----------------|
-----6-----6--------------6-4--|-----3-----3--------4-----|
--4----------------------------|--1--------------4-----4--|
-------------------------------|--------------2-----------|


                                              ^
  E  E  E  E  S  S  S  E  S E     E  E  E  E  H           W
-------------------------------|--------------2--------|--L----------------|
-------------------------------|--------------2--------|--L----------------|
--------6-----5h-6p-5s-3-------|--------3-----3--------|--L----------------|
-----6-----6--------------6-4--|-----3-----3--4--------|--L----------------|
--4----------------------------|--1-----------4--------|--L----------------|
-------------------------------|--------------2--------|--L----------------|


Final Chorus

  E  E  E  E  E  E  E  E     E  E  E  E  E  E  E  E
--------------------------|--------------------------|
--------------------------|--------------------------|
--6--6--6--6--------------|--3--3--3-----------------|
--6--6--6--6--6--6--6--6--|--3--3--3--3--4--4--4--4--|
--4--4--4--4--6--6--6--6--|--1--1--1--3--4--4--4--4--|
--------------4--4--4--4--|-----------1--2--2--2--2--|


  E  E  E  E  E  E  E  E     E  E  E  E  E  E  S S S S
--------------------------|----------------------------|
--------------------------|----------------------------|
--6--6--6--6--------------|--3--3--3-------------------|
--6--6--6--6--6--6--6--6--|--3--3--3--3--4--4--x-x-x-x-|
--4--4--4--4--6--6--6--6--|--1--1--1--3--4--4--x-x-x-x-|
--------------4--4--4--4--|-----------1--2--2--x-x-x-x-|


  E  S S E  E  S  S  S  E  S  S S    E  E  E  E  E  E  S S S S
----------------------------------|----------------------------|
----------------------------------|----------------------------|
--6--6-6-6-----5h-6p-5s-3---------|--3--3--3--3----------------|
--6--6-6-6-----------------6p-4---|--3--3--3--3--4--4--x-x-x-x-|
--4--4-4-4------------------------|--1--1--1--1--4--4--x-x-x-x-|
----------------------------------|--------------2--2--x-x-x-x-|


  E  S S E  E  S  S  S  E  S  S S    E  E  E  E  E  E  S S S S
----------------------------------|----------------------------|
----------------------------------|----------------------------|
--6--6-6-6-----5h-6p-5s-3---------|--3--3--3--3----------------|
--6--6-6-6-----------------6p-4---|--3--3--3--3--4--4--x-x-x-x-|
--4--4-4-4------------------------|--1--1--1--1--4--4--x-x-x-x-|
----------------------------------|--------------2--2--x-x-x-x-|


  E  S S E  E  S  S  S  E  S  S S    E  E  E  E  E  E  S S S S
----------------------------------|----------------------------|
----------------------------------|----------------------------|
--6--6-6-6-----5h-6p-5s-3---------|--3--3--3--3----------------|
--6--6-6-6-----------------6p-4---|--3--3--3--3--4--4--x-x-x-x-|
--4--4-4-4------------------------|--1--1--1--1--4--4--x-x-x-x-|
----------------------------------|--------------2--2--x-x-x-x-|


                                   Outro

  E  S S E  E  S  S  S  E  S  S S    S S S S E  E  S S E  S S E
----------------------------------|--1-1-1-1-1-------1-1--2-2-2--|
----------------------------------|--2-2-2-2-2-------1-1--2-2-2--|
--6--6-6-6-----5h-6p-5s-3---------|--3-3-3-3-3-------2-2--3-3-3--|
--6--6-6-6-----------------6p-4---|--3-3-3-3-3-------3-3--4-4-4--|
--4--4-4-4------------------------|--1-1-1-1-1-------3-3--4-4-4--|
----------------------------------|------------------1-1--2-2-2--|


  S S S S E  Q    E   E  E     S S S S E  E  S S E  S S E
--1-1-1-1-1-------1s--6-----|--1-1-1-1-1-------1-1--2-2-2--|
--2-2-2-2-2-----------------|--2-2-2-2-2-------1-1--2-2-2--|
--3-3-3-3-3-----------------|--3-3-3-3-3-------2-2--3-3-3--|
--3-3-3-3-3-----------------|--3-3-3-3-3-------3-3--4-4-4--|
--1-1-1-1-1-----------------|--1-1-1-1-1-------3-3--4-4-4--|
----------------------------|------------------1-1--2-2-2--|


  S S S S E  E  H
--1-1-1-1-1--------------||
--2-2-2-2-2--------------||
--3-3-3-3-3--------------||
--3-3-3-3-3--------------||
--1-1-1-1-1--------------||
-------------------------||


Guitar 2

Intro

                S S S S E  E  S S E  S S E     S S S S E  Q    E  E  E
E||---------||------------------------------|---------------------------|
B||---------||------------------------------|---------------------------|
G||*-------*||--3-3-3-3-3-------------------|--3-3-3-3-3----------------|
D||*-------*||--3-3-3-3-3-------3-3--4-4-4--|--3-3-3-3-3----------------|
A||---------||--1-1-1-1-1-------3-3--4-4-4--|--1-1-1-1-1----------------|
E||---------||------------------1-1--2-2-2--|---------------------------|


  S S S S E  E  S S E  S S E     S S S S E  Q    E  E  E
------------------------------|---------------------------|
------------------------------|---------------------------|
--3-3-3-3-3-------------------|--3-3-3-3-3----------------|
--3-3-3-3-3-------3-3--4-4-4--|--3-3-3-3-3----------------|
--1-1-1-1-1-------3-3--4-4-4--|--1-1-1-1-1----------------|
------------------1-1--2-2-2--|---------------------------|


  S S S S E  E  S S E  S S E     S S S S E  Q    E  E  E
------------------------------|---------------------------|
------------------------------|---------------------------|
--3-3-3-3-3-------------------|--3-3-3-3-3----------------|
--3-3-3-3-3-------3-3--4-4-4--|--3-3-3-3-3----------------|
--1-1-1-1-1-------3-3--4-4-4--|--1-1-1-1-1----------------|
------------------1-1--2-2-2--|---------------------------|


                                              PM PM PM PM PM PM
  S S S S E  E  S S E  S S E     S S S S E  S S  S  E  S  S  E.
------------------------------|----------------------------------|
------------------------------|----------------------------------|
--3-3-3-3-3-------------------|--3-3-3-3-3----3------------------|
--3-3-3-3-3-------3-3--4-4-4--|--3-3-3-3-3----3--3--3--3--4--4---|
--1-1-1-1-1-------3-3--4-4-4--|--1-1-1-1-1----1--3--3--3--4--4---|
------------------1-1--2-2-2--|------------------1--1--1--2--2---|


  S S S S E  E  S S E  S S E     S S S S E  Q    E  E  E
------------------------------|---------------------------|
------------------------------|---------------------------|
--3-3-3-3-3-------------------|--3-3-3-3-3----------------|
--3-3-3-3-3-------3-3--4-4-4--|--3-3-3-3-3----------------|
--1-1-1-1-1-------3-3--4-4-4--|--1-1-1-1-1----------------|
------------------1-1--2-2-2--|---------------------------|


  S S S S E  E  S S E  S S E     S S S S E  E  H           W
------------------------------|-------------------------|-------------------|
------------------------------|-------------------------|-------------------|
--3-3-3-3-3-------------------|--3-3-3-3-3--8--L--------|-------------------|
--3-3-3-3-3-------3-3--4-4-4--|--3-3-3-3-3--8--L--------|--4----------------|
--1-1-1-1-1-------3-3--4-4-4--|--1-1-1-1-1--6--L--------|--4----------------|
------------------1-1--2-2-2--|-------------------------|--2----------------|


                    Chorus

  W                   E  E  E  E  E  E  E  E     E  E  E  E  E  E  E  E
-------------------|--------------------------|--------------------------|
-------------------|--------------------------|--------------------------|
-------------------|--6--6--6--6--------------|--3--3--3-----------------|
--3----------------|--6--6--6--6--6--6--6--6--|--3--3--3--3--4--4--4--4--|
--3----------------|--4--4--4--4--6--6--6--6--|--1--1--1--3--4--4--4--4--|
--1----------------|--------------4--4--4--4--|-----------1--2--2--2--2--|


  E  E  E  E  E  E  E  E     E  E  E  E  E  E  S S S S
--------------------------|----------------------------|
--------------------------|----------------------------|
--6--6--6--6--------------|--3--3--3-------------------|
--6--6--6--6--6--6--6--6--|--3--3--3--3--4--4--x-x-x-x-|
--4--4--4--4--6--6--6--6--|--1--1--1--3--4--4--x-x-x-x-|
--------------4--4--4--4--|-----------1--2--2--x-x-x-x-|


  E  E  E  E  E  E  E  E     E  E  E  E  E  E  S S S S
--------------------------|----------------------------|
--------------------------|----------------------------|
--6--6--6--6--------------|--3--3--3-------------------|
--6--6--6--6--6--6--6--6--|--3--3--3--3--4--4--x-x-x-x-|
--4--4--4--4--6--6--6--6--|--1--1--1--3--4--4--x-x-x-x-|
--------------4--4--4--4--|-----------1--2--2--x-x-x-x-|


                          Pre-Solo

                             PM PM PM PM PM PM   PM PM   PM PM PM
  E  E  E  E  E  E  E  E     S  S  S  S  E  E  S S  S  S S  S  E
--------------------------|---------------------------------------|
--------------------------|---------------------------------------|
--6--6--6--6--------------|--3--3--3--3--3--3---------------------|
--6--6--6--6--6--6--6--6--|--3--3--3--3--3--3----3--3----4--4--4--|
--4--4--4--4--6--6--6--6--|--1--1--1--1--1--1----3--3----4--4--4--|
--------------4--4--4--4--|----------------------1--1----2--2--2--|

                             Solo
  PM PM PM PM PM PM
  S  S  S  S  E  E  H           E  E  E  E  E  E  E  E
-----------------------------|--------------------------|
-----------------------------|--------------------------|
--3--3--3--3--3--3-----------|--3--3--3--3--3-----------|
--3--3--3--3--3--3-----------|--3--3--3--3--3--3--4--4--|
--1--1--1--1--1--1-----------|--1--1--1--1--1--3--4--4--|
-----------------------------|-----------------1--2--2--|


  E  E  E  E  E  E  E  E     E  E  E  E  E  E  E  E
--------------------------|--------------------------|
--------------------------|--------------------------|
--3--3--3--3--3-----------|--3--3--3--3--3-----------|
--3--3--3--3--3--3--4--4--|--3--3--3--3--3--3--4--4--|
--1--1--1--1--1--3--4--4--|--1--1--1--1--1--3--4--4--|
-----------------1--2--2--|-----------------1--2--2--|


                           Verse 2
[ Tab from: http://www.guitaretab.com/a/anti-flag/87981.html ]
  E  E  E  E  E  E  E  E     S S S S E  E  S S E  S S E
--------------------------|------------------------------|
--------------------------|------------------------------|
--3--3--3--3--3-----------|--3-3-3-3-3-------------------|
--3--3--3--3--3--3--4--4--|--3-3-3-3-3-------3-3--4-4-4--|
--1--1--1--1--1--3--4--4--|--1-1-1-1-1-------3-3--4-4-4--|
-----------------1--2--2--|------------------1-1--2-2-2--|


  S S S S E  Q    E  E  E     S S S S E  E  S S E  S S E
---------------------------|------------------------------|
---------------------------|------------------------------|
--3-3-3-3-3----------------|--3-3-3-3-3-------------------|
--3-3-3-3-3----------------|--3-3-3-3-3-------3-3--4-4-4--|
--1-1-1-1-1----------------|--1-1-1-1-1-------3-3--4-4-4--|
---------------------------|------------------1-1--2-2-2--|


               PM PM PM PM PM PM
  S S S S E  S S  S  E  S  S  E.     S S S S E  E  S S E  S S E
----------------------------------|------------------------------|
----------------------------------|------------------------------|
--3-3-3-3-3----3------------------|--3-3-3-3-3-------------------|
--3-3-3-3-3----3--3--3--3--4--4---|--3-3-3-3-3-------3-3--4-4-4--|
--1-1-1-1-1----1--3--3--3--4--4---|--1-1-1-1-1-------3-3--4-4-4--|
------------------1--1--1--2--2---|------------------1-1--2-2-2--|


  S S S S E  Q    E  E  E     S S S S E  E  S S E  S S E
---------------------------|------------------------------|
---------------------------|------------------------------|
--3-3-3-3-3----------------|--3-3-3-3-3-------------------|
--3-3-3-3-3----------------|--3-3-3-3-3-------3-3--4-4-4--|
--1-1-1-1-1----------------|--1-1-1-1-1-------3-3--4-4-4--|
---------------------------|------------------1-1--2-2-2--|


                         Pre-Chorus

  S S S S E  E  H           W                   W
-------------------------|-------------------|-------------------|
-------------------------|-------------------|-------------------|
--3-3-3-3-3--8--L--------|-------------------|-------------------|
--3-3-3-3-3--8--L--------|--4----------------|--3----------------|
--1-1-1-1-1--6--L--------|--4----------------|--3----------------|
-------------------------|--2----------------|--1----------------|


  E  E  E  E  E  E  E  E     E  E  E  E  E  E  E  E
--------------------------|--------------------------|
--------------------------|--------------------------|
--6--6--6--6--------------|--3--3--3-----------------|
--6--6--6--6--6--6--6--6--|--3--3--3--3--4--4--4--4--|
--4--4--4--4--6--6--6--6--|--1--1--1--3--4--4--4--4--|
--------------4--4--4--4--|-----------1--2--2--2--2--|


  E  E  E  E  E  E  E  E     E  E  E  E  E  E  S S S S
--------------------------|----------------------------|
--------------------------|----------------------------|
--6--6--6--6--------------|--3--3--3-------------------|
--6--6--6--6--6--6--6--6--|--3--3--3--3--4--4--x-x-x-x-|
--4--4--4--4--6--6--6--6--|--1--1--1--3--4--4--x-x-x-x-|
--------------4--4--4--4--|-----------1--2--2--x-x-x-x-|


  E  E  E  E  E  E  E  E     E  E  E  E  E  E  S S S S
--------------------------|----------------------------|
--------------------------|----------------------------|
--6--6--6--6--------------|--3--3--3-------------------|
--6--6--6--6--6--6--6--6--|--3--3--3--3--4--4--x-x-x-x-|
--4--4--4--4--6--6--6--6--|--1--1--1--3--4--4--x-x-x-x-|
--------------4--4--4--4--|-----------1--2--2--x-x-x-x-|


                           Interlude

  E  E  E  E  E  E  E  E     W                   W
--------------------------|--1----------------|--L----------------|-------|
--------------------------|--2----------------|--L----------------|-------|
--6--6--6--6--------------|--3----------------|--L----------------|-------|
--6--6--6--6--6--6--6--6--|--3----------------|--L----------------|-------|
--4--4--4--4--6--6--6--6--|--1----------------|--L----------------|-------|
--------------4--4--4--4--|-------------------|-------------------|-------|


        Bridge

          E  E  E  E  E  E  E  E     E  E  E  E  E  E  E  E
-------|--------------------------|--------------------------|
-------|--------------------------|--------------------------|
-------|--3--3--3--3--------------|--6--6--6--6--------------|
-------|--3--3--3--3--4--4--4--4--|--6--6--6--6--3--3--3--3--|
-------|--1--1--1--1--4--4--4--4--|--4--4--4--4--3--3--3--3--|
-------|--------------2--2--2--2--|--------------1--1--1--1--|


  E  E  E  E  E  E  E  E     E  E  E  E  E  E  E  E
--------------------------|--------------------------|
--------------------------|--------------------------|
--3--3--3--3--------------|--6--6--6--6--------------|
--3--3--3--3--4--4--4--4--|--6--6--6--6--3--3--3--3--|
--1--1--1--1--4--4--4--4--|--4--4--4--4--3--3--3--3--|
--------------2--2--2--2--|--------------1--1--1--1--|


  S S S S S S S S S S S S S S S S    S S S S S S S S S S S S S S S S
----------------------------------|----------------------------------|
----------------------------------|----------------------------------|
--3---3---3---3-------------------|--6---6---6---6-------------------|
--3---3---3---3---4---4---4---4---|--6---6---6---6---3---3---3---3---|
--1---1---1---1---4---4---4---4---|--4---4---4---4---3---3---3---3---|
------------------2---2---2---2---|------------------1---1---1---1---|


  S S S S S S S S S S S S S S S S    S S S S S S S S S S S S S S S S
----------------------------------|----------------------------------|
----------------------------------|----------------------------------|
--3---3---3---3-------------------|--6---6---6---6-------------------|
--3---3---3---3---4---4---4---4---|--6---6---6---6---3---3---3---3---|
--1---1---1---1---4---4---4---4---|--4---4---4---4---3---3---3---3---|
------------------2---2---2---2---|------------------1---1---1---1---|


Pre-Chorus                              Altered Chorus

  W                   W
-------------------|-------------------|-----|-------|-------|-------|-------|
-------------------|-------------------|-----|-------|-------|-------|-------|
-------------------|-------------------|-----|-------|-------|-------|-------|
--4----------------|--3----------------|-----|-------|-------|-------|-------|
--4----------------|--3----------------|-----|-------|-------|-------|-------|
--2----------------|--1----------------|-----|-------|-------|-------|-------|


Chorus

  E  E  E  E  E  E  E  E     E  E  E  E  E  E  E  E
--------------------------|--------------------------|
--------------------------|--------------------------|
--6--6--6--6--------------|--3--3--3-----------------|
--6--6--6--6--6--6--6--6--|--3--3--3--3--4--4--4--4--|
--4--4--4--4--6--6--6--6--|--1--1--1--3--4--4--4--4--|
--------------4--4--4--4--|-----------1--2--2--2--2--|


  E  E  E  E  E  E  E  E     E  E  E  E  E  E  S S S S
--------------------------|----------------------------|
--------------------------|----------------------------|
--6--6--6--6--------------|--3--3--3-------------------|
--6--6--6--6--6--6--6--6--|--3--3--3--3--4--4--x-x-x-x-|
--4--4--4--4--6--6--6--6--|--1--1--1--3--4--4--x-x-x-x-|
--------------4--4--4--4--|-----------1--2--2--x-x-x-x-|


  E  E  E  E  E  E  E  E     E  E  E  E  E  E  S S S S
--------------------------|----------------------------|
--------------------------|----------------------------|
--6--6--6--6--------------|--3--3--3-------------------|
--6--6--6--6--6--6--6--6--|--3--3--3--3--4--4--x-x-x-x-|
--4--4--4--4--6--6--6--6--|--1--1--1--3--4--4--x-x-x-x-|
--------------4--4--4--4--|-----------1--2--2--x-x-x-x-|


  E  E  E  E  E  E  E  E     E  E  E  E  E  E  S S S S
--------------------------|----------------------------|
--------------------------|----------------------------|
--6--6--6--6--------------|--3--3--3-------------------|
--6--6--6--6--6--6--6--6--|--3--3--3--3--4--4--x-x-x-x-|
--4--4--4--4--6--6--6--6--|--1--1--1--3--4--4--x-x-x-x-|
--------------4--4--4--4--|-----------1--2--2--x-x-x-x-|


  E  E  E  E  E  E  E  E     E  E  E  E  E  E  S S S S
--------------------------|----------------------------|
--------------------------|----------------------------|
--6--6--6--6--------------|--3--3--3-------------------|
--6--6--6--6--6--6--6--6--|--3--3--3--3--4--4--x-x-x-x-|
--4--4--4--4--6--6--6--6--|--1--1--1--3--4--4--x-x-x-x-|
--------------4--4--4--4--|-----------1--2--2--x-x-x-x-|


                          Outro

  E  E  E  E  E  E  E  E     S S S S E  E  S S E  S S E
--------------------------|------------------------------|
--------------------------|------------------------------|
--6--6--6--6--------------|--3-3-3-3-3-------------------|
--6--6--6--6--6--6--6--6--|--3-3-3-3-3-------3-3--4-4-4--|
--4--4--4--4--6--6--6--6--|--1-1-1-1-1-------3-3--4-4-4--|
--------------4--4--4--4--|------------------1-1--2-2-2--|


  S S S S E  Q    E  E  E     S S S S E  E  S S E  S S E
---------------------------|------------------------------|
---------------------------|------------------------------|
--3-3-3-3-3----------------|--3-3-3-3-3-------------------|
--3-3-3-3-3----------------|--3-3-3-3-3-------3-3--4-4-4--|
--1-1-1-1-1----------------|--1-1-1-1-1-------3-3--4-4-4--|
---------------------------|------------------1-1--2-2-2--|


  S S S S E  E  H
-------------------------||
-------------------------||
--3-3-3-3-3--------------||
--3-3-3-3-3--------------||
--1-1-1-1-1--------------||
-------------------------||

7. One Trillion Dollars


thanks to Blink182_4_life from Ultimate Guitar for this tab

verse (Play 2 times)
e|----------------------3-3-3-3-3-3-3-3------|
B|---8-8-8-8-8-8-8-8----4-4-4-4-4-4-4-4------|
G|---8-8-8-8-8-8-8-8----5-5-5-5-5-5-5-5------|
D|---8-8-8-8-8-8-8-8----5-5-5-5-5-5-5-5------|
A|---6-6-6-6-6-6-6-6----3-3-3-3-3-3-3-3------|
E|-------------------------------------------|

Chorus (Play 2 times)
e|--1-1-1-1--3--4-4--6-6-----------------------|
B|--1-1-1-1--3--4-4--6-6--8-8-8-8-8-8-8-8------|
G|--2-2-2-2--4--5-5--7-7--8-8-8-8-8-8-8-8------|
D|--3-3-3-3--5--6-6--8-8--8-8-8-8-8-8-8-8------|
A|--3-3-3-3--5--6-6--8-8--6-6-6-6-6-6-6-6------|
E|--1-1-1-1--3--4-4--6-6-----------------------|

verse 2 (Play 2 times)
e|----------------------3-3-3-3-3-3-3-3------|
B|---8-8-8-8-8-8-8-8----4-4-4-4-4-4-4-4------|
G|---8-8-8-8-8-8-8-8----5-5-5-5-5-5-5-5------|
D|---8-8-8-8-8-8-8-8----5-5-5-5-5-5-5-5------|
A|---6-6-6-6-6-6-6-6----3-3-3-3-3-3-3-3------|
E|-------------------------------------------|


Bridge (Play 1 time)
e|-4-4-4-4---------4-4-4-4---------4-4-4-4---------6-6-6-6-6-6-6-6-|
B|-4-4-4-4-8-8-8-8-4-4-4-4-8-8-8-8-4-4-4-4-8-8-8-8-6-6-6-6-6-6-6-6-|
G|-5-5-5-5-8-8-8-8-5-5-5-5-8-8-8-8-5-5-5-5-8-8-8-8-7-7-7-7-7-7-7-7-|
D|-6-6-6-6-8-8-8-8-6-6-6-6-8-8-8-8-6-6-6-6-8-8-8-8-8-8-8-8-8-8-8-8-|
A|-6-6-6-6-6-6-6-6-6-6-6-6-6-6-6-6-6-6-6-6-6-6-6-6-8-8-8-8-8-8-8-8-|
E|-4-4-4-4---------4-4-4-4---------4-4-4-4---------6-6-6-6-6-6-6-6-|

e|-----------------3-3-3-3-3-3-3-3-----------------3-3-3-3-3-3-3-3---|
B|-8-8-8-8-8-8-8-8-4-4-4-4-4-4-4-4-8-8-8-8-8-8-8-8-4-4-4-4-4-4-4-4---|
G|-8-8-8-8-8-8-8-8-5-5-5-5-5-5-5-5-8-8-8-8-8-8-8-8-5-5-5-5-5-5-5-5---|
D|-8-8-8-8-8-8-8-8-5-5-5-5-5-5-5-5-8-8-8-8-8-8-8-8-5-5-5-5-5-5-5-5---|
A|-6-6-6-6-6-6-6-6-3-3-3-3-3-3-3-3-6-6-6-6-6-6-6-6-3-3-3-3-3-3-3-3---|
E|-------------------------------------------------------------------|

outro (Play 3 times)
e|--1-1-1-1--3--4-4--6-6-----------------------|
B|--1-1-1-1--3--4-4--6-6--8-8-8-8-8-8-8-8------|
G|--2-2-2-2--4--5-5--7-7--8-8-8-8-8-8-8-8------|
D|--3-3-3-3--5--6-6--8-8--8-8-8-8-8-8-8-8------|
A|--3-3-3-3--5--6-6--8-8--6-6-6-6-6-6-6-6------|
E|--1-1-1-1--3--4-4--6-6-----------------------|

At the end hit each chord 1 time
e|--1--3--4--6-----------|
B|--1--3--4--6---8-------|
G|--2--4--5--7---8-------|
D|--3--5--6--8---8-------|
A|--3--5--6--8---6-------|
E|--1--3--4--6-----------|

8. State Funeral

Legend
*= play multiple times
x= mute
~= hold
>= pick scraping
/= slide up
.= palm mute

Intro
E|----|
B|----|
G|----|
D|----|
A|-3-2|
E|-1-0|

E|--|
B|--|
G|--|
D|--|this chord is played through the rest of the intro before the vocals
A|4*|start
E|2*|

Pre-Verse
E|---------------------------------------------|
B|---------------------------------------------|
G|---------------------------------------------|
D|---------------------------------------------|
A|333333333333333333333333333333333333333333333|
E|111111111111111111111111111111111111111111111|
       this is the sound of a dropping bomb
(probably not the right count, but should start and end a little before
and after.)

Verse Rhythm x2
E|----------------|  |--------|
B|----------------|  |--------|
G|------------6666|  |--------|
D|33x3xx-6666-6666|x3|8888-666|
A|33x3xx-6666-4444|  |8888-666|
E|11x1xx-4444-----|  |6666-444|

Verse Lead x2
E|----------------|  |--------|
B|----------------|  |--------|
G|-------8888-6666|  |--------|
D|33x3xx-xxxx-xxxx|x3|8888-666|
A|33x3xx-6666-4444|  |8888-666|
E|11x1xx----------|  |6666-444|

Chorus
E|--------------------------|  |----------|
B|--------------------------|  |----------|
G|--------------------------|  |----------|
D|6666----------------------|x3|6-6~------|
A|4444-6666-3333333333333333|  |4-4~6-6~3~|
E|-----4444-1111111111111111|  |----4-4~1~|

Pre-Verse 2 Rhythm
E|------------------------------0~--------------|
B|------------------------------0~--------------|
G|------------------------------0~--------------|
D|-----------3-3------------3-3-0~--3-3-3-------|
A|-----------3-3------------3-3-0~--3-3-3-------|
E|-----------1-1------------1-1-0~--1-1-1-------|

Pre-Verse 2 Lead
E|----------------------------------------------|
B|--------------->>>->>>->>>--------------------|
G|--------------->>>->>>->>>------------6-------|
D|------------------------------------6---------|
A|----------------------------------4-----------|
E|>>>->>>->>>----------------------------->>>>>>|

Verse Rhythm x1
E|----------------|  |------------|
B|----------------|  |------------|
G|------------6666|  |------------|
D|33x3xx-6666-6666|x3|8888-666----|
A|33x3xx-6666-4444|  |8888-666----|
E|11x1xx-4444-----|  |6666-444----|

Verse Lead x1
E|----------------|  |------------|
B|----------------|  |6h8p6-------|
G|-------8888-6666|  |-----6p4~-/8|<<<<
D|33x3xx-xxxx-xxxx|x3|------------|please send me the correct part for this
A|33x3xx-6666-4444|  |------------|
E|11x1xx----------|  |------------|

Chorus
E|--------------------------|  |----------|
B|--------------------------|  |----------|
G|--------------------------|  |----------|
D|6666----------------------|x3|6-6~------|
A|4444-6666-3333333333333333|  |4-4~6-6~3~|
E|-----4444-1111111111111111|  |----4-4~1~|

Pre-Outro
E|------------|
B|------------|
G|------------|
D|333333333333|
A|333333333333|
E|111111111111|
pm .. .. .. .

Outro
E|--------------|
B|--------------|
G|------------88|
D|33355566688888|x5
A|33355566688866|
E|111333444666--|

end on
E|-------------|
B|-------------|
G|--------6---6|
D|--------6--6-|
A|////<<<<4-4--|slide up the neck while pickscraping
E|////<<<<-----|
            ...


9. Confessions of an Economic Hitman


Thank you to Shaun Amos of Ultimate-Guitar and
Pandrew947 of Ultimate-Guitar for this tab

x=muted note
.=palm mute
~=hold note
/=slide

Intro
e|------------------------------------------------------------------|
B|---------------------------------6~-------------------------------|
G|--------------------------------5---------------------------------|
D|---------66--------------------x----------------------------------|
A|-33------44------33-----------x-----------------------------------|
E|-11--------------11----------x-------------------<--Pickscrape-->-|

Intro Pt2
Lead x2
               {1st ending}{2nd ending}
e|----------|  |----------||----------|
B|-6-6------|  |----------||-8---8-9--|
G|----5--85-|3x|-3/5553/5-||---8------|
D|----------|  |----------||----------|
A|----------|  |----------||----------|
E|----------|  |----------||----------|

Rhythm
e|---------------------------------------------------------------|
B|---------------------------------------------------------------|
G|--------666666--------555555--------666666--------888888-------|
D|-333333-666666-666666-555555-333333-666666-666666-888888-------|
A|-333333-444444-666666-333333-333333-444444-666666-666666-------|
E|-111111--------444444--------111111--------444444--------------|


Verse Pt1
e|----------------------------------|
B|----------------------------------|
G|----------------------------------|
D|---------66-----------------------|2x
A|-33------44------33---------------|
E|-11--------------11---------------|

Verse Pt2
e|----------------------------------|----------------------------------|
B|----------------------------------|----------------------------------|
G|----------------------------------|----------------------------------|
D|---------66--------------66--88---|---------66------5555555555555555-|
A|-33------44------33------44--66---|-33------44------3333333333333333-|
E|-11--------------11---------------|-11-------------------------------|
                                                      ........

Chorus
e|----------------------------------|----------------------------------|
B|----------------------------------|----------------------------------|
G|----------------------------------|----------------------------------|
D|--------6-666666--------5-55565---|--------6-666666--------8-8888888-|
A|--3333334-4444446-6666663-333436--|--3333334-4444446-6666666-6666666-|
E|--111111--------4-444444-------4--|--111111--------4-444444----------|

Post-Chorus
Lead
e|----------|  |----------||----------|
B|-6-6------|  |----------||-8---8-9--|
G|----5--85-|3x|-3/5553/5-||---8------|
D|----------|  |----------||----------|
A|----------|  |----------||----------|
E|----------|  |----------||----------|

Rhythm
e|---------------------------------------------------------------|
B|---------------------------------------------------------------|
G|--------666666--------555555--------666666--------888888-------|
D|-333333-666666-666666-555555-333333-666666-666666-888888-------|
A|-333333-444444-666666-333333-333333-444444-666666-666666-------|
E|-111111--------444444--------111111--------444444--------------|


Verse Pt1
e|----------------------------------|
B|----------------------------------|
G|----------------------------------|
D|---------66-----------------------|2x
A|-33------44------33---------------|
E|-11--------------11---------------|

Verse Pt2 Variation
e|----------------------------------|----------------------------------|
B|----------------------------------|----------------------------------|
G|----------------------------------|----------------------------------|
D|---------666-666---------666-666--|---------666-666-5555555555555555-|
A|-333-333-444-444-666-666-444-444--|-333-333-444-444-3333333333333333-|
E|-111-111---------444-444----------|-111-111--------------------------|
   ..  ..  ..  ..  ..  ..  ..  ..     ..  ..  ..  ..  ........

Chorus
e|----------------------------------|----------------------------------|
B|----------------------------------|----------------------------------|
G|----------------------------------|----------------------------------|
D|--------6-666666--------5-55565---|--------6-666666--------8-8888888-|
A|--3333334-4444446-6666663-333436--|--3333334-4444446-6666666-6666666-|
E|--111111--------4-444444-------4--|--111111--------4-444444----------|

Bridge (slowed down chorus variation)

e|----------------------------------|----------------------------------|
B|----------------------------------|----------------------------------|
G|----------------------------------|-------------------------88888888-|
D|---------66666666--------55555555-|---------66666666--------66666666-|
A|-33333333444444446666666633333333-|-333333334444444466666666---------|
E|-11111111--------44444444---------|-11111111--------44444444---------|

e|----------------------------------|----------------------------------|
B|----------------------------------|----------------------------------|
G|----------------------------------|----------------------------------|
D|---------66666666--------555555555|---------66666666--------888888888|
A|-33333~--4444444466666~--333333333|-33333~--4444444466666~--666666666|
E|-11111~----------44444~-----------|-11111~----------44444~-----------|
   ....            ....               ....            ....

Chorus
e|----------------------------------|----------------------------------|
B|----------------------------------|----------------------------------|
G|----------------------------------|----------------------------------|
D|--------6-666666--------5-55565---|--------6-666666--------8-8888888-|
A|--3333334-4444446-6666663-333436--|--3333334-4444446-6666666-6666666-|
E|--111111--------4-444444-------4--|--111111--------4-444444----------|

Outro
e|-----------------------------------|
B|-----------------------------------|
G|-----------------------------------|
D|-88888888666666668888--------------|
A|-6666666644444444666666663~------3-|
E|---------------------44441~------1-|

10. War Sucks, Lets Party


Once Again thank you to Blink182_4_life for this tab

verse 1 (play 4 times)
e|--5-5--4-4--4-4-4-4-----|
B|--5-5--5-5--4-4-4-4-----|
G|--6-6--4-4--4-4-4-4-----|
D|------------------------|
A|------------------------|
E|------------------------|

pre-chorus
e|--5-5-5-5-5-5-5-5-5-5-5-5--7-7-7-7-7-7-7-7--|
B|--5-5-5-5-5-5-5-5-5-5-5-5--7-7-7-7-7-7-7-7--|
G|--6-6-6-6-6-6-6-6-6-6-6-6--8-8-8-8-8-8-8-8--|
D|--7-7-7-7-7-7-7-7-7-7-7-7--9-9-9-9-9-9-9-9--|
A|--7-7-7-7-7-7-7-7-7-7-7-7--9-9-9-9-9-9-9-9--|
E|--5-5-5-5-5-5-5-5-5-5-5-5--7-7-7-7-7-7-7-7--|


Chorus
e|-4-4-4-4-4-4-4-4-5-5-5-5-5-5-5-5-4-4-4-4-4-4-4-4-5-5-5-5-5-5-5-5-|
B|-5-5-5-5-5-5-5-5-5-5-5-5-5-5-5-5-5-5-5-5-5-5-5-5-5-5-5-5-5-5-5-5-|
G|-6-6-6-6-6-6-6-6-6-6-6-6-6-6-6-6-6-6-6-6-6-6-6-6-6-6-6-6-6-6-6-6-|
D|-6-6-6-6-6-6-6-6-7-7-7-7-7-7-7-7-6-6-6-6-6-6-6-6-7-7-7-7-7-7-7-7-|
A|-4-4-4-4-4-4-4-4-7-7-7-7-7-7-7-7-4-4-4-4-4-4-4-4-7-7-7-7-7-7-7-7-|
E|-----------------5-5-5-5-5-5-5-5-----------------5-5-5-5-5-5-5-5-|

e|-2-2-2-2-2-2-2-2--5-5-5-5--7-7-7-7--|
B|-2-2-2-2-2-2-2-2--5-5-5-5--7-7-7-7--|
G|-3-3-3-3-3-3-3-3--6-6-6-6--8-8-8-8--|
D|-4-4-4-4-4-4-4-4--7-7-7-7--9-9-9-9--|
A|-4-4-4-4-4-4-4-4--7-7-7-7--9-9-9-9--|
E|-2-2-2-2-2-2-2-2--5-5-5-5--7-7-7-7--|

pre-verse
e|------9------9---------9------9----|
B|--9-9---9--9---9---9-9---9--9---9--|
G|-----------------------------------|
D|-----------------------------------|
A|-----------------------------------|
E|-----------------------------------|

verse 2 (play 4 times)
e|--5-5--4-4--4-4-4-4-----|
B|--5-5--5-5--4-4-4-4-----|
G|--6-6--4-4--4-4-4-4-----|
D|------------------------|
A|------------------------|
E|------------------------|

pre-chorus
e|--5-5-5-5-5-5-5-5-5-5-5-5--7-7-7-7-7-7-7-7--|
B|--5-5-5-5-5-5-5-5-5-5-5-5--7-7-7-7-7-7-7-7--|
G|--6-6-6-6-6-6-6-6-6-6-6-6--8-8-8-8-8-8-8-8--|
D|--7-7-7-7-7-7-7-7-7-7-7-7--9-9-9-9-9-9-9-9--|
A|--7-7-7-7-7-7-7-7-7-7-7-7--9-9-9-9-9-9-9-9--|
E|--5-5-5-5-5-5-5-5-5-5-5-5--7-7-7-7-7-7-7-7--|


Chorus
e|-4-4-4-4-4-4-4-4-5-5-5-5-5-5-5-5-4-4-4-4-4-4-4-4-5-5-5-5-5-5-5-5-|
B|-5-5-5-5-5-5-5-5-5-5-5-5-5-5-5-5-5-5-5-5-5-5-5-5-5-5-5-5-5-5-5-5-|
G|-6-6-6-6-6-6-6-6-6-6-6-6-6-6-6-6-6-6-6-6-6-6-6-6-6-6-6-6-6-6-6-6-|
D|-6-6-6-6-6-6-6-6-7-7-7-7-7-7-7-7-6-6-6-6-6-6-6-6-7-7-7-7-7-7-7-7-|
A|-4-4-4-4-4-4-4-4-7-7-7-7-7-7-7-7-4-4-4-4-4-4-4-4-7-7-7-7-7-7-7-7-|
E|-----------------5-5-5-5-5-5-5-5-----------------5-5-5-5-5-5-5-5-|

e|-2-2-2-2-2-2-2-2--5-5-5-5--7-7-7-7--|
B|-2-2-2-2-2-2-2-2--5-5-5-5--7-7-7-7--|
G|-3-3-3-3-3-3-3-3--6-6-6-6--8-8-8-8--|
D|-4-4-4-4-4-4-4-4--7-7-7-7--9-9-9-9--|
A|-4-4-4-4-4-4-4-4--7-7-7-7--9-9-9-9--|
E|-2-2-2-2-2-2-2-2--5-5-5-5--7-7-7-7--|


outro (play 4 times)
e|-4-4-4-4-4-4-4-4-2-2-2-2-2-2-2-2--|
B|-5-5-5-5-5-5-5-5-2-2-2-2-2-2-2-2--|
G|-6-6-6-6-6-6-6-6-3-3-3-3-3-3-3-3--|
D|-6-6-6-6-6-6-6-6-4-4-4-4-4-4-4-4--|
A|-4-4-4-4-4-4-4-4-4-4-4-4-4-4-4-4--|
E|-----------------2-2-2-2-2-2-2-2--|

11. The W.T.O. Kills Farmers

Intro

E|11-1-22-4|
B|22-1-22-4|
G|33-2-33-5|
D|33-3-44-6|x3
A|11-3-44-6|
E|---1-22-4|

E|11-1-1-1-1-1-1-1-1|
B|22-1-2-2-2-2-2-2-2|
G|33-2-3-3-3-3-3-3-3|
D|33-3-3-3-3-3-3-3-3|
A|11-3-1-1-1-1-1-1-1|
E|---1--------------|

Verse

E|11-1-22-4|
B|22-1-22-4|
G|33-2-33-5|
D|33-3-44-6|x3
A|11-3-44-6|
E|---1-22-4|

E|11-1-1-1-1-1-1-1-1|
B|22-1-2-2-2-2-2-2-2|
G|33-2-3-3-3-3-3-3-3|
D|33-3-3-3-3-3-3-3-3|
A|11-3-1-1-1-1-1-1-1|
E|---1--------------|

Pre-Chorus

E|2~---1~---|
B|2~---1~---|
G|3~---2~---|
D|4~---3~---|
A|4~---3~---|
E|2~---1~---|

Chorus

E|-----------------------------------|
B|-----------------------------------|
G|33333333---------------------------|
D|33333333-33333333-44444444-66666666|x2
A|11111111-33333333-44444444-66666666|
E|---------11111111-22222222-44444444|

Chorus Part 2
Guitar 1
E|-----1--------1--------2--------4--|
B|------2--------1--------2--------4-|
G|3333---3--------2--------3--------5|
D|3333-----3333-----4444-----6666----|
A|1111-----3333-----4444-----6666----|
E|---------1111-----2222-----4444----|
Guitar 2                             |
E|-----------------------------------|
B|-----------------------------------|
G|33333333---------------------------|
D|33333333-33333333-44444444-66666666|
A|11111111-33333333-44444444-66666666|
E|---------11111111-22222222-44444444|

Chorus Part 3
E|--------------------1---1---1---1---1---1---2---3|
B|--------------------2---2---2---2---1---1---2---3|
G|33333333----------3-3-3-3-3-3-3-3---2---2---3---4|
D|33333333-33333333-3-3-3-3-3-3-3-3-3-3-3-3-4-4-6-6|
A|11111111-33333333-1-1-1-1-1-1-1-1-3-3-3-3-4-4-6-6|
E|---------11111111-----------------1-1-1-1-2-2-4-4|

Post-Chorus
E|1~1---1~----2~2---4~-------|
B|2~-2--1~----2~-2--4~-------|
G|3~--3-2~----3~----5~----6-5|
D|3~----3~----4~----6~----6-5|
A|1~----3~----4~----6~----4-3|
E|------1~----2~----4~-------|

Verse 2- x2

E|11-1-22-4|
B|22-1-22-4|
G|33-2-33-5|
D|33-3-44-6|x3
A|11-3-44-6|
E|---1-22-4|

E|11-1-1-1-1-1-1-1-1|
B|22-1-2-2-2-2-2-2-2|
G|33-2-3-3-3-3-3-3-3|
D|33-3-3-3-3-3-3-3-3|
A|11-3-1-1-1-1-1-1-1|
E|---1--------------|

Pre-Chorus

E|2~---1~---|
B|2~---1~---|
G|3~---2~---|
D|4~---3~---|
A|4~---3~---|
E|2~---1~---|

Chorus

E|-----------------------------------|
B|-----------------------------------|
G|33333333---------------------------|
D|33333333-33333333-44444444-66666666|x2
A|11111111-33333333-44444444-66666666|
E|---------11111111-22222222-44444444|

Chorus Part 2
Guitar 1
E|-----1--------1--------2--------4--|
B|------2--------1--------2--------4-|
G|3333---3--------2--------3--------5|
D|3333-----3333-----4444-----6666----|
A|1111-----3333-----4444-----6666----|
E|---------1111-----2222-----4444----|
Guitar 2                             |
E|-----------------------------------|
B|-----------------------------------|
G|33333333---------------------------|
D|33333333-33333333-44444444-66666666|
A|11111111-33333333-44444444-66666666|
E|---------11111111-22222222-44444444|

Chorus Part 3
E|--------------------1---1---1---1---1---1---2---3|
B|--------------------2---2---2---2---1---1---2---3|
G|33333333----------3-3-3-3-3-3-3-3---2---2---3---4|
D|33333333-33333333-3-3-3-3-3-3-3-3-3-3-3-3-4-4-6-6|
A|11111111-33333333-1-1-1-1-1-1-1-1-3-3-3-3-4-4-6-6|
E|---------11111111-----------------1---1-1-2-2-4-4|

Post- Chorus

E|1~-1---2~-2---1--------------|
B|2~--2--2~--2--2--------------|
G|3~---3-3~---3-3--------------|
D|3~-----4~-----3-3-3-3-5-5-6-6|
A|1~-----4~-----1-1-1-1-3-3-4-4|
E|-------2~--------------------|

Solo- play entire part twice

E|1111-1111-111222111111-1111-1111-111222444222-1111-1111-111222111111|
B|2222-2222-222222222111-2222-2222-222222444222-2222-2222-222222222111|
G|--------------------------------------------------------------------|
D|--------------------------------------------------------------------|
A|--------------------------------------------------------------------|
E|--------------------------------------------------------------------|

                  |not sure about|
E|2-2---------2-2-1-1-----2-2----|
B|----2-2-------------1-1-----2-2|
G|--------3-3--------------------|
D|-------------------------------|
A|-------------------------------|
E|-------------------------------|

Outro
Guitar 1
E|-------------------|
B|-------------------|
G|3333---------------|
D|3333-3333-4444-6666|x8
A|1111-3333-4444-6666|
E|-----1111-2222-4444|

Guitar 2 comes in after guitar 1 plays its part 4 times
E|-------------------|  |6666-8888-9999-11111111|
B|-------------------|  |xxxx-xxxx-xxxx-x-x-x-x-|
G|3333-5555-6666-8888|  |3333-5555-6666-8-8-8-8-|
D|xxxx-xxxx-xxxx-xxxx|x3|-----------------------|
A|1111-3333-4444-6666|  |-----------------------|
E|-------------------|  |-----------------------|

End On
E|2~---1~---1--|
B|2~---2~----2-|
G|3~---3~-----3|
D|4~---3~------|
A|4~---1~------|
E|2~-----------|


12. Cities Burn

Tuned down Half Step

Intro
Lead
Eb|---------------------------------------|
Bb|888888885555666633333333888888855556666|
Gb|555555555555555555555555555555555555555|
Db|---------------------------------------|
Ab|---------------------------------------|
Eb|---------------------------------------|

Rhythm
Eb|-------------------------------------------------------|
Bb|---------------------------------------6666666666666666|
Gb|------------------------5~--7~---------5555555555555555|
db|------------------------5~--7~---------3333333333333333|
Ab|------------------------3~--5~-------------------------|
Eb|-------------------------------------------------------|
                                          ........
Verse
x2
|---------------------------------------|
|---------------------------------------|
|55-5-55-5-55-5-55-5--------------------|
|55-5-55-5-55-5-55-5-33-3-33-3-33-3-33-3|
|33-3-33-3-33-3-33-3-33-3-33-3-33-3-33-3|
|--------------------11-1-11-1-11-1-11-1|

x2
|------------------------------------|
|--------------------6666666666666666|
|55-5-55-5-55-5-55-5-5555555555555555|
|55-5-55-5-55-5-55-5-3333333333333333|
|33-3-33-3-33-3-33-3-----------------|
|------------------------------------|
 ..   ..   ..   ..

Chorus
Lead
|------------------------|
|888888885555666633333333|
|555555555555555555555555|
|------------------------|
|------------------------|
|------------------------|

Rhythm
|------------------------|
|----------------6~~~~~~~|
|5~~~~~~~7~~~~~~~5~~~~~~~|
|5~~~~~~~7~~~~~~~3~~~~~~~|
|3~~~~~~~5~~~~~~~--------|
|------------------------|

|--------------------------------|
|----------------6666666666666666|
|5~~~~~~~7~~~~~~~5555555555555555|
|5~~~~~~~7~~~~~~~3333333333333333|
|3~~~~~~~5~~~~~~~----------------|
|--------------------------------|
                 ........

Verse 2
x2
|---------------------------------------|
|---------------------------------------|
|55-5-55-5-55-5-55-5--------------------|
|55-5-55-5-55-5-55-5-33-3-33-3-33-3-33-3|
|33-3-33-3-33-3-33-3-33-3-33-3-33-3-33-3|
|--------------------11-1-11-1-11-1-11-1|

x2
|------------------------------------|
|--------------------6666666666666666|
|55-5-55-5-55-5-55-5-5555555555555555|
|55-5-55-5-55-5-55-5-3333333333333333|
|33-3-33-3-33-3-33-3-----------------|
|------------------------------------|
 ..   ..   ..   ..

Bridge
|-------------------------------------------|
|-------------------------------------------|
|-------------------------------------------|
|7-7-5-5-3-3-3-3-7-7-5-5-3-3-3-3-3-7-77-5-55|
|7-7-5-5-3-3-3-3-7-7-5-5-3-3-3-3-3-7-77-5-55|
|5-5-3-3-1-1-1-1-5-5-3-3-1-1-1-1-1-5-55-3-33|

Chorus
Lead
|------------------------|
|888888885555666633333333|
|555555555555555555555555|
|------------------------|
|------------------------|
|------------------------|

Rhythm
|------------------------|
|----------------6~~~~~~~|
|5~~~~~~~7~~~~~~~5~~~~~~~|
|5~~~~~~~7~~~~~~~3~~~~~~~|
|3~~~~~~~5~~~~~~~--------|
|------------------------|

|--------------------------------|
|----------------6666666666666666|
|5~~~~~~~7~~~~~~~5555555555555555|
|5~~~~~~~7~~~~~~~3333333333333333|
|3~~~~~~~5~~~~~~~----------------|
|--------------------------------|
                 ........

Solo
Lead
|------------------------------------------------------------|
|-88---8-66---6-5b-5b-5b-5b-5b\-88---8-66---6-5b-5b-5b-5b-5b\|
|----9------7----------------------9------7------------------|
|------------------------------------------------------------|
|------------------------------------------------------------|
|------------------------------------------------------------|

|-----------------------------------------------8b---10b-8b--|
|-8---8---8-10-8--8---8----------8---8---8-10-8----8--------8|
|---9---9-----------9---9-10-9-7---9---9---------------------|
|------------------------------------------------------------|
|------------------------------------------------------------|
|------------------------------------------------------------|

Rhythm
x4
|---------------------------------------|
|---------------------------------------|
|55-5-55-5-55-5-55-5--------------------|
|55-5-55-5-55-5-55-5-33-3-33-3-33-3-33-3|
|33-3-33-3-33-3-33-3-33-3-33-3-33-3-33-3|
|--------------------11-1-11-1-11-1-11-1|

Bridge
|-------------------------------------------|
|-------------------------------------------|
|-------------------------------------------|
|7-7-5-5-3-3-3-3-7-7-5-5-3-3-3-3-3-7-77-5-55|
|7-7-5-5-3-3-3-3-7-7-5-5-3-3-3-3-3-7-77-5-55|
|5-5-3-3-1-1-1-1-5-5-3-3-1-1-1-1-1-5-55-3-33|

Some Other Part
Rhythm
|-----------------------------------------------------------|
|-----------------------------------------------------------|
|5--------------------------------5-------------------------|
|5(x16)-3------7-----5-----3------5(x16)-3------7-----5-----|
|3------3(x16)-7(x8)-5(x8)-3(x16)-3------3(x16)-7(x8)-5(x8)-|
|-------1------5-----3-----1-------------1------5-----3-----|

Lead
|-----------------------------------------------------------|
|-----------------------------------------------------------|
|--9-7----5-7----9-7---7-9-----------9-7----7-9---9-7---7-9-|
|--x-x----x-x----x-x---x-x-----------x-x----x-x---x-x---x-x-|
|--7-5----3-5----7-5---5-7-----------7-5----5-7---7-5---5-7-|
|-----------------------------------------------------------|

After That
|----------------------|
|----------------------|
|55-55-5-77-77-7-5~----|
|33-33-3-55-55-5-5~----|
|----------------3~----|
|----------------------|

The next part
|--------------------------------|  |-------------------------|
|8-8-8-8-5-5-6-6-3-3-3-3-3-3-3-3-|  |8-8-8-8-5-5-6-6----------|
|-5-5-5-5-5-5-5-5-5-5-5-5-5-5-5-5|  |-5-5-5-5-5-5-5-5---------|
|--------------------------------|x2|-------------------------|
|--------------------------------|  |-------------------------|
|--------------------------------|  |----------------pickslide|

Outro
|------------------|  |----------------------------|
|------------------|  |----------------------------|
|5-----7-----------|  |5-----7---------------------|
|5(x8)-7(x8)-3-----|x3|5(x8)-7(x8)-33-33-33-33-5-5-|
|3-----5-----3(x16)|  |3-----5-----33-33-33-33-5-5-|
|------------1-----|  |------------11-11-11-11-3-3-|

End On
|------|
|------|
|5~----|
|5~----|
|3~----|
|------|


13. Depleted Uranium Is A War Crime

Intro
Rhythm
E|--------------------------------|  |---|
B|--------------------------------|  |---|
G|-----444------------------------|  |-6~|
D|6666622222222444------------4444|x2|-6~|
A|44444---000002226666666677772222|  |-4~|
E|----------------444444445555----|  |---|
  ................................

Lead comes in Second Time
E|4-0-4-0-4-0-4-0-4-0-4-0-4-0-----|  |---|
B|----------------------------454-|  |-2~|
G|--------------------------------|  |---|
D|--------------------------------|  |---|
A|--------------------------------|  |---|
E|--------------------------------|  |---|

Verse
E|------------------|
B|------------------|
G|-----4------------|
D|-66-624-422-244-4-|x4
A|-44-4-2-200-022-2-|
E|------------------|

Chorus
E|----------------------------------------------------------|
B|----------------------------------------------------------|
G|--------4-4-4-4-66-466-466-66444---------4-4-4-4-6---6---6|
D|6-6-6-6-4-4-4-4-66-466-466-66444-6-6-6-6-4-4-4-4-6---6---6|
A|6-6-6-6-2-2-2-2-44-244-244-44222-6-6-6-6-2-2-2-2-4---4---4|
E|4-4-4-4--------------------------4-4-4-4------------------|

Verse
E|------------------|
B|------------------|
G|-----4------------|
D|-66-624-422-244-4-|x4
A|-44-4-2-200-022-2-|
E|------------------|

Chorus
E|----------------------------------------------------------|
B|----------------------------------------------------------|
G|--------4-4-4-4-66-466-466-66444---------4-4-4-4-6~~~~~~~~|
D|6-6-6-6-4-4-4-4-66-466-466-66444-6-6-6-6-4-4-4-4-6~~~~~~~~|
A|6-6-6-6-2-2-2-2-44-244-244-44222-6-6-6-6-2-2-2-2-4~~~~~~~~|
E|4-4-4-4--------------------------4-4-4-4------------------|

Bridge
E|---------------|
B|---------------|
G|6-6-6-6-6-6-6-6|
D|6-6-6-6-6-6-6-6|x2 dont let these chords ring
A|4-4-4-4-4-4-4-4|
E|---------------|

Bridge Part 2
Lead
E|44------44------44------44--7755|
B|--554455--554455--554455--55----|
G|--------------------------------|
D|--------------------------------|
A|--------------------------------|
E|--------------------------------|
  ................................

Rhythm
E|----------------------------|
B|----------------------------|
G|6-6-4444--------------------|
D|6-6-2222222224446-6-----4444|x2
A|4-4-----000002226-6-77772222|
E|----------------4-4-5555----|
      ............    ........

Bridge Part 3
Lead
E|-5-4-0-5-4-0-5-4-0-5-4-0-5-4-0-5-4-0-7-5-4|x2
B|------------------------------------------|
G|------------------------------------------|
D|------------------------------------------|
A|------------------------------------------|
E|------------------------------------------|

Rhythm
E|--------------------------------|
B|--------------------------------|
G|6666644422222444------------4444|
D|66666222222224446666666677774444|x2
A|44444---000002226666666677772222|
E|----------------444444445555----|

Solo
Lead
Solo(not sure about the last few notes)
E|-------------------------------------------------|
B|--9b11--9b11--9b11--9b11--9b11--9b11-------------|
G|-11b13-11b13-11b13-11b13-11b13-11b13----9---11-9-|
D|--------------------------------------11--11-----|
A|-------------------------------------------------|
E|-------------------------------------------------|

E|-------------------------------------------------|
B|--9b11--9b11--9b11--9b11--9b11--9b11-12b14-12b13-|
G|-11b13-11b13-11b13-11b13-11b11-11b13-------------|
D|-------------------------------------------------|
A|-------------------------------------------------|
E|-------------------------------------------------|

E|-------------------------------12----------------------|
B|-12b14-10----12b14-10----12b14----12-10-12b14-10-------|
G|----------11----------11-------------------------12b14-|
D|-------------------------------------------------------|
A|-------------------------------------------------------|
E|-------------------------------------------------------|

Rhythm
E|--------------------------------|
B|--------------------------------|
G|6666644422222444------------4444|
D|66666222222224446666666677774444|x2
A|44444---000002226666666677772222|
E|----------------444444445555----|

Chorus
E|--------------------------------|  |--------------------------|
B|--------------------------------|  |--------------------------|
G|--------4-4-4-4-66-466-466-66444|  |---------4-4-4-4-6~~~~~~~~|
D|6-6-6-6-4-4-4-4-66-466-466-66444|x2|-6-6-6-6-4-4-4-4-6~~~~~~~~|
A|6-6-6-6-2-2-2-2-44-244-244-44222|  |-6-6-6-6-2-2-2-2-4~~~~~~~~|
E|4-4-4-4-------------------------|  |-4-4-4-4------------------|

If anyone has the ending to this song put in the comments so i can edit it in

that goes for both Rhythm and Lead



Lyrics


1.  I'd Tell You But...

Your invasion was a crime
Your righteous explanations - lies
Kicking in our doors, raids at night
Won't win you hearts, you've lost your minds.
Your killing of my family
Did not make a fan out of me
If this is what your freedom reaps
Keep it for your United States.
I'd tell you all these things but I can't speak because...

I'm dead, I'm dead
my life is life no more
I'm dead, I'm dead
your bullets cut into my flesh
Woah oh, woah oh, woah oh

I loved to read, write poetry
I loved my friends, my family
I loved the sand and loved the sea
The water splashing over me
Now I will haunt you in your dreams
Never another restful sleep
I'll forever be by your side.
In life your victim, death your bride.
My memory will haunt you when you're awake or asleep because...

I'm dead, I'm dead
my life is life no more
I'm dead, I'm dead
your bullets cut into my flesh
Woah oh, woah oh, woah oh
Your cluster bombs ripped me to shreds
Woah oh, woah oh, woah oh


2. The Press Corpse

The {Downing Street} memo says...

...We gotta work to make the facts fit the false charges
Pull the wool over the eyes of the filthy masses
Stab the people in the back for the corporate choice
Roll the propaganda out using The People's Voice

We don't want to talk about it...

The press scribble scribble every half-truth spoke
Then shoot it round the country like an April Fools joke
Hype the nation for a Desert Storm love affair
Wave the stars and stripes like you just don't care!

They talk it up all day, they talk it up all night
They talk until their face turns blue - Red white and blue!
But when the truth escapes the night and crawls into the day
We find the picture still askew

They don't want to... talk talk talk talk talk about it
They wanna tiptoe, walk around it
Wave the flag and mindlessly salute
They don't want to talk about it
They wanna tiptoe, walk around it
Wave the flag and cowardly salute

And on the TV screen...
...Diversion and aversion is the flavor of the day
Was it WMDs? Or Democracy?
Blame it on MI-6 or the CIA
The White House Press Corpse only has one thing to say...

"We don't want to talk about it!"

The White House boils over, "Al Jazeera got it wrong!"
The Press Corpse jumps onboard singing the White House song
While over in Iraq thousands are dead because of lies
The spineless war drumming-press corpse have taken lives

They talk it up all day, they talk it up all night
They talk until their face turns blue - Red white and blue!
But when the truth escapes the night and crawls into the day
We find the picture still askew

They don't want to... talk talk talk talk talk about it
They wanna tiptoe, walk around it
Wave the flag and mindlessly salute
They don't want to talk about it
They wanna tiptoe, walk around it
Wave the flag and cowardly salute

Fires fueled on endless lies
Black shrouds coat desert skies
A nation's viewpoint blurred and led
As embeds report what they're fed

We don't want to talk about it...
We don't want to talk about it...
We don't want to talk about it...
We don't want to talk about it...

(We don't want to talk about it...)
We don't, don't want to, we don't wanna talk about it
(We don't want to...)
We don't, don't want to, we don't wanna talk

They don't want to... talk talk talk talk talk about it
They wanna tiptoe, walk around it
Wave the flag and cowardly salute
They don't want to talk about it
They wanna tiptoe, walk around it
Wave the flag and cowardly salute

3. Exodus(Emigre)

First they came for the Communists, and I did not speak out.
Then they came for the socialists, and I did not speak out.
Next they came for the trade unionists, and I did not speak out.
AND THEN THEY CAME FOR ME

This is autonomy- My American Dream
Stepped over on the street - Stars and stripes blinding me
Their contagious air we breath - My American Dream
Classism the black plague - Will mark your grave

This is the second time, we will not fall in line,
No you canít stop this exodus
No you wonít stop this exodus.
No you canít stop this exodus
No you wonít stop this exodus.

A hooded prisoner on the bay - These truths let freedom ring
A child Darfur refugee - Home of the free and brave
The ghosts of war who will not sleep - These truths let freedom ring
The poor who drown in bigotry - Will mark your grave

This is the second time, yeah, itís the second time, we will not fall in line,
No you canít stop this exodus
No you wonít stop this exodus.
No you canít stop this exodus
No you wonít stop this exodus.

Fight forever more - The movement of the people
Fight forever more - The voice of the emigre
Fight forever more - The movement of the people
Fight forever more - No concession, no compromise

First they came for the Communists, and I did not speak out.
Then they came for the socialists, and I did not speak out.
Then they came for the trade unionists, and I did not speak out.
AND THEN THEY CAME FOR ME

No you canít stop this exodus
No you wonít stop this exodus.
No you canít stop this exodus
No you wonít stop this exodus.
This is the second time; we will not fall in line!

4.  The Project For A New American Century


It's a gut check of what you believe

A Global Pax Americana
Neo-con, neo-fascist blue print - USA hegemony
Charlatan war hawks, untried, untrue
Celebrate and exploit tragedy
To steal away control

And it's a gut check of what you believe
Will you stand up for democracy?
or a New American Century?
Endless...
Endless violence, endless hatred
Endless empire tyranny
Will you make a stand for human dignity?
Or never ending hate?

It's a think tank, psycho and crazed
War profiteering membership - a world catastrophe
They've got a war plan that counts on you
to kill for their corporate empire
while they sit at home

And it's a gut check of what you believe
Will you stand up for democracy?
or a New American Century?
Endless...
Endless violence, endless hatred
Endless empire tyranny
Will you make a stand for human dignity?

Are you going to...Fight Back!
Time to prove what you really believe
We gotta FIGHT BACK!
Until we win it all
We gotta FIGHT BACK!
Will you heed the call?
The Neo-Fascist race to war
The PNAC plan to rule the world

It's a gut check of what you believe
Will you stand up for democracy?
or a New American Century?

Are you going to...

And it's a gut check of what you believe
Will you stand up for democracy?
or a New American Century?
Endless...
Endless violence, endless hatred
Endless empire tyranny
Will you make a stand for human dignity?

Will you? Or never ending hate?


5. Hymn For The Dead


Sing a hymn for the dead
Because in death as in life
we are one in the same
Sing a hymn for the world
To avert eugenic errors, go!

The sun sets, the light fades
The blood red on an empty street
It's not night, it's not day
It's no more, for an unfortunate soul who
Witnessed his life violently erased,
From the horror of the human race
Bright futures exchanged for profit, living half alive

Sing a hymn for the dead
Because in death as in life
we are one in the same
Sing a hymn for the world
To avert eugenic errors, go!

In life now pay respects to your blood
Those in the vast of the great
Unknown, unite there, your heart's one
in moments you'll never forget, yeah
History lessons direct from the grave
Lost souls of the lost divide
Liberate your generation, living, rotting flesh

Sing a hymn for the dead
Because in death as in life
we are one in the same
Sing a hymn for the world
To avert eugenic errors

Call out tyranny!
A spark of dissent can light a fury of flame
Call out to be free!

Sound off! Be the voice of a generation
Dissent! You've got a choice to make
Sound off! Be the voice of a generation
Dissent! You've got a choice to make

Strip away! Be the voice of a generation
Strip away! You've got a choice to make
Cut away! Cut away!
Strip away! Strip away!
Cut away! Strip away your chains!

Sing a hymn for the dead
Because in death as in life
we are one in the same
Sing a hymn for the world
To avert eugenic errors

Sing a hymn for the dead
Because in death as in life
we are one in the same
Sing a hymn for the world
To avert eugenic errors, oh!

6. This is the End(For You My Friend)


Seems every station on the TV
is selling something no one can be
If every page was torn from the magazine
would cash still drive the media machine?
The products, damage and pursuit are endless
identity can leave you selfless

We will not witness this anymore
This is the end for you my friend
I can't forgive, I won't forget
on and on, we sing our songs and
on and on, the wars wage on and
on and on, we sing our songs for more
for more

Your eyes are open but you can't see
your mouth is moving but you don't speak
a blitzkrieg of images to break your will
I hope you choke on every pill

We will not witness this anymore
This is the end for you my friend
I can't forgive, I won't forget
on and on, we sing our songs and
on and on, the wars wage on and
on and on, we sing our songs for more

We will not witness this anymore
This is the end for you my friend
I can't forgive, I won't forget...

This is the end for you my friend
I can't forgive, I won't forget
On and on, we sing our songs and
On and on, the wars wage on and
On and on, we sing our songs and
On and on, the wars wage on and
On and on, we sing our songs and
On and on, your wars wage on and
On and on, we sing our songs for more
We sing our songs for more

7. One Trillion Dollars


One trillion dollars could buy a lot of bling
One trillion dollars could buy most anything
One trillion dollars buying bullets, buying guns
One trillion dollars in the hands of killers, thugs

Woah-oh-oh woah-oh woah-oh-oh-oh
Fuck the world, a lot of people gotta die tonight
Woah-oh-oh woah-oh woah-oh
Fuck the world,
Fuck 'em all

One trillion dollars to Africa, Iraq
One trillion dollars and itís never coming back
One trillion dollars could buy some bad-ass drugs
One trillion dollars makes me wanna kill myself

Woah-oh-oh woah-oh woah-oh-oh-oh
Fuck the world, a lot of people gotta die tonight
Woah-oh-oh woah-oh woah-oh
Fuck the world, yeah, yeah
Fuck 'em all

Until the sun burns from the sky
Until the sun burns so bright this world is no more
Sun burns from the sky...
And all the people are just dust on the ground

One trillion dollars could buy a heart, a soul
One trillion dollars buying nations - all the world
One trillion dollars could make the fat lady sing
One trillion dollars, what a bullshit useless thing

Woah-oh-oh woah-oh woah-oh-oh-oh
Fuck the world, a lot of people gotta die tonight
Woah-oh-oh woah-oh woah-oh-oh-oh
Fuck the world, a lot of people gotta die tonight
Woah-oh-oh woah-oh woah-oh-oh-oh
Shit loads of money spent will show us wrong from right
Fuck the world
Fuck 'em all

8. State Funeral


This is the sound of a dropping bomb

After years are we still all content
With being pawns in war game chess?
Shuffled by King George and his English Queen
On a board of autocracy

As fundamentalist citing stories and fables
Of whose god is more righteously skilled
In whose gods' honor that we are all killed...

A dead ringer for Armageddon
Dead ringer dead!
A dead ringer for Armageddon, yeah
Dead ringer dead!
A dead ringer for Armageddon
Dead ringer dead!
This State Funeral, we do not mourn

And still the wicked sleep
And dream of endless years of tyranny
Passed on by incestuous means
Skull and Bone, Freemason reigns

A dead ringer for Armageddon
Dead ringer dead!
A dead ringer for Armageddon, yeah
Dead ringer dead!
A dead ringer for Armageddon
Dead ringer dead!
This State Funeral, we do not mourn

Destroy all adversary - free yourself
Erase the common enemy - free yourself
Extinguishing the quarry - free yourself
Through the smoke screen we seek out justice...

9. Confessions of an Economic Hitman


Recruited by the NSA, my orders to talk smooth and straight
If heads of state try to say "No", I lovingly told them "Fuck you!"
The jackals lose when I cannot (get through)
There is a windfall of profit to (get to)
You better deal or we're gonna take you down

And it goes on and on and on and it goes on and on it goes
The iron fist for blood and empire, will make you move
And it goes on and on and on and it goes on and on it goes
The iron fist for blood and empire, will make you move
So dance with me

Arbenz, Mossadeq, Allende, Roldos, Torrijos, Aristide
Elected democratically, all snuffed out by the CIA
The truth will cause your heart to seize
Shed light on the true enemy

And it goes on and on and on and it goes on and on it goes
The iron fist for blood and empire, will make you move
And it goes on and on and on and it goes on and on it goes
The iron fist for blood and empire, will make you move

What have we done? (You don't know)
Until you care (You never will)
What have we done? (You don't know)
Until you care (You never will)

The crimes, the murder, unjust, unheard of
The crimes, the murder, what have we done?

And it goes on and on and on and it goes on and on it goes
The iron fist for blood and empire, will make you move
And it goes on and on and on and it goes on and on it goes
The iron fist for blood and empire, will make you move
So dance with me

10. War Sucks, Lets Party


The Anarchists are buzzin' like bees around a hive
As protesters hit the streets with signs, signs, signs
The dissent of the world has filled us to the brim
But some will still cast their ballots
Based on those who live in sin.

It's unbelievable
It's unbelievable to watch the system crumble
This political shakedown, coming correct from the underground
This political shakedown, coming correct from the underground
We've been cut up
We've been shut up
For far too long, yeah!

Pull the feeding tube out of the mouth of democracy
Televise it starving to death
Once buried in the ground
We can all breathe free
We can all breathe free

It's unbelievable
It's unbelievable to watch the system crumble
This political shakedown, coming correct from the underground
This political shakedown, coming correct from the underground
We've been cut up
We've been shut up
For far too long, yeah!

(It's unbelievable, whoa oh whoa oh-oh)
(It's unbelievable, whoa oh whoa oh-oh)

Policeman takes his club to a head (It's unbelievable, whoa oh whoa oh-oh)
Just like he's beating the drum
The news reporters dance like hell (It's unbelievable, whoa oh whoa oh-oh)
..To the sounds.
[x2]


The W.T.O. Kills Farmers


1, 2, 3, 4, 5, 6, 7, 8

I did my best to make it in the world
I plowed by sweat in tears into the fertile
Generation, generation, generated what was needed
for supply to meet demand

The sun shone bright on the ancient range
Then the promise of the future turned the Neo-Liberal Plain
The people's voice shut up, shut down, abstain
Is it gonna take a martyr to end the charade?

They tell you that you're out of luck
While people fall they watch their profits rocket up

S.O.S., this is a global call
You better make a stand
You better make it now
Take back your rights from the IMF, World Bank and Monsanto

S.O.S., this is a global call
You better make a stand
You better make it now
Corporatocracy leads to profits for killers,
profits for killers, no!

Geneva to Washington, Cancun to Seoul
The Corporate Welfare State running out of control
The Corprocrats have got the guns, but their numbers are few
They can kill democracy, but they cannot kill the truth

(So!) Step out on the matrix of the corporate slave
(So!) Step into the world of the living wage
Not for one, not for two, not for three or four
But for every single citizen around the fucking world

The people in the fight of our lives
The spark of revolution in a farmers' suicide

S.O.S., this is a global call
You better make a stand
You better make it now
Take back your rights from the IMF, World Bank and Monsanto

S.O.S., this is a global call
You better make a stand,
You better make it now
Corporatocracy leads to profits for killers
Just a bunch of killers!
profits for killers

When they wage war on you, you lay asleep
When they poison your food, you choose to drink
There's poison in the well!

Yeah!

(Stand Up! Resist!)
Monsanto are killers, k-k-k-k-killers
(Stand Up! Resist!)
Syngenta are killers, k-k-k-k-killers
(Stand Up! Resist!)
The World Bank are killers, k-k-k-k-killers (Stand Up! Resist!)
(Stand Up! Resist!)
The WTO are killers, k-k-k-k-killers (Stand Up! Resist!)
Oh no...

12. Cities Burn


Woah oh Woah oh
Woah oh Woah oh

I woke up sweat soaked in the morning
I was mourning freedom buried deep.
Mourning freedom buried deep.
In tickers and broadcasts through power lines.
Freedom buried in sound bites, buried in headlines

And we sing
Woah oh Woah oh
Woah oh Woah oh

A nation in fervor has given up.
No, no, no, this fight has just begun.
With movements and revolutions as few and far between.
As movements and revolutions will ever come to be

This scare is blood soaked red - soaked red
Marked down the last words that you said, as we watched this city

Woah oh Woah oh
Watch it burn!
Woah oh Woah oh
Alright!

It's beaten in and beaten in.
We're coming back around again.
It's beaten in and beaten in.
We're coming back around again

This scare is blood soaked red - soaked red
Marked down the last words that you said, as we watched this city

Fall and hit the ground
No one can ever replace what we've lost now.
Fall and hit the ground
No one can ever replace what we've lost now, yeah!

We're coming back around
Woah oh Woah oh
We're coming back around
Woah oh Woah oh
We're coming back around
Woah oh Woah oh
We're coming back around
Woah oh Woah oh
We're coming back around
Woah oh Woah oh
We're coming back around
Woah oh Woah oh
We're coming back around
Woah oh Woah oh

We're coming back around

13. Depleted Uranium Is A War Crime


[U.S. Representative, Jim McDermott:]
"Depleted Uranium is used on the ends of bullets
and on the ends of shells because it is so hard {that}
almost any armament is vulnerable to something that is tipped with Depleted Uranium."

Woahhh!

In the cities and towns of Afghanistan
In the heart of the Balkans - the heart of Iraq
Not your Grandfather's style of deadly munitions
It's silent and deadly long after the mission

Depleted uranium is a war crime
Depleted uranium is a war crime

Gonna cut through their armor, then cut through your lungs
If you make it home alive you'll still die young
A greedy gang of liars, yeah we've seen it all before
A moneymaking scheme led by war-profiteering whores

Depleted uranium is a war crime
Depleted uranium is a war crime

[U.S. Representative, Jim McDermott:]
"They were throwing it away until they figured out they could use it for armament."

Half Life - 4.5 Billion
Half Life - You'll waste away
Half Life - 4.5 Billion
Half Life - You'll waste a...

We've heard their lies before and we know they're lying again
Feels like a dťjŗ vu of Agent Orange and Vietnam
Weaponry so sadistic it is hard to comprehend
War profits surge with every breath by Uncle Sam

Depleted uranium is a war crime
Depleted uranium is a war crime
Depleted uranium is a war crime

[U.S. Representative, Jim McDermott:]
"We went to a hospital in Southern Iraq,
and a woman was there with a very deformed child and
her husband had been in the Iraqi Army and had been
in the battles in Southern Iraq and
came home and they produced a baby with very severe
malformations... Both the Leukemia rates in children and
malformations at birth had increased by 600%
and it was clearly an epidemic where all this
DU had been dumped... It becomes a dust that can be
inhaled and infect the blood stream and the rest
of the body and it was the opinion of the
doctors there that this was caused by depleted uranium...
They simply saw this as being a direct result of the
war by United States."

Half Life - 4.5 Billion
Half Life - We waste away
Half Life - 4.5 Billion
Half Life - We waste away
Half Life - 4.5 Billion
Half Life - We waste away
Half Life - 4.5 Billion
Half Life - We waste away

[U.S. Representative, Jim McDermott:]
"The doctor said,
'Women {in Iraq} at the time of birth don't ask if
it's a boy or a girl, they ask: Is it normal?'
...The military denies first, and then after the evidence
builds to the point where they can no longer deny,
then they do the research. That's what happened in the
Vietnam era around Agent Orange and I suspect and
I'm worried that that's what will happen this time."
Related for For Blood And Empire tab