Song name
# A B C D E F G H I J K L M N O P Q R S T U V W X Y Z

Anti-flag - Marc Defiant tab

since theres no other tab available for this song, i decided to tab it out which was 
easy, and i guess its alright like that.

Intro + Verse.

------------------------------------------------------------------|
------------------------------------------------------------------|
------------------------------------------------------------------|
--8-8--6-8-8--6-11-11--11-4-4-----8-8--6-8-8--6-11-11--11-4-------|
--6-6--4-6-6--4--9--9---9-2-2-----6-6--4-6-6--4--9--9---9-2-------|
--6-6--4-6-6--4--9--9---9-2-2-----6-6--4-6-6--4--9--9---9-2-------|


Chorus.

------------------------------------------------------------------|
------------------------------------------------------------------|
------------------------------------------------------------------|
--3-3--4-6---3-3--4-6---3-3--4-6---8-8-8-8------------------------|
--1-1--2-4---1-1--2-4---1-1--2-4---6-6-6-6------------------------|
--1-1--2-4---1-1--2-4---1-1--2-4---6-6-6-6------------------------|


Bridge.
------------------------------------------------------------------|
------------------------------------------------------------------|
------------------------------------------------------------------|
--8~---------8~-------------------8-8-6-8-------------------------|
--6~------------------------------6-6-4-6-------------------------|
--6~------------------------------6-6-4-6-------------------------|

End.

-----
-----
-----
--8--
--6--
--6--
Tap to rate this tab
# A B C D E F G H I J K L M N O P Q R S T U V W X Y Z