Song name
# A B C D E F G H I J K L M N O P Q R S T U V W X Y Z

Anti-hero - Two Words tab

Two Words - Anti-Hero

Verse
e|--------------|
b|--------------|
g|--------------|
d|--9--7--5--7--|
a|--9--7--5--7--|
E|--7--5--3--5--|

Chorus
e|--------------|
b|--------------|
g|--------7-----|
d|--9--5--7--7--|
a|--9--5--5--7--|
E|--7--3-----5--|

Solo
e|--------------------------------------------------------------|--------|--------|--|
b|--------------------------------------------------------------|--------|--------|--|
g|--------------------------------------------------------------|--------|--------|--|
d|--7--7--7--5--4--7--5--4--------7--7--7--5--4--7--5--4--------|--------|--5--4--|--|
a|--------------------------7--5--------------------------7--5--|--5--4--|--------|--|
E|--------------------------------------------------------------|--------|--------|--|

--10--9--9--10--9--9--12--9--10--9--9--10--9--9--12--12--9--9--12--9--9--12--9--17~--|
-------------------------------------------------------------------------------------|
-------------------------------------------------------------------------------------|
-------------------------------------------------------------------------------------|
-------------------------------------------------------------------------------------|
-------------------------------------------------------------------------------------|
Tap to rate this tab
# A B C D E F G H I J K L M N O P Q R S T U V W X Y Z