Song name
# A B C D E F G H I J K L M N O P Q R S T U V W X Y Z

Anti Heros - Dead Inside tab

Artist:  The Anti-Heros
Song:  Dead Inside
Album:  I'm not sure
Track:  I'm not sure
Tabbed by:  Rick (RCGoalie1@aol.com)
AIM:  unhlax23


Chords:

A5  (577xxx)
C5  (x355xx)
D5  (x577xx)
G5  (355xxx)
F5  (133xxx)
E5  (022xxx)


Intro/Chorus:

E|-----------------------------------------------------------|
B|-----------------------------------------------------------|
G|----------5-5-5---------7-7-7---------5-5------------------|
D|--7-7-7-7-5-5-5-7-7-7-7-7-7-7-5-5-5-5-5-5-5-5-3-3-2-2-7-7-7|
A|--7-7-7-7-3-3-3-7-7-7-7-5-5-5-5-5-5-5-3-3-5-5-3-3-2-2-7-7-7|
E|--5-5-5-5-------5-5-5-5-------3-3-3-3-----3-3-1-1-0-0-5-5-5|

Play  A5  four time and then play the intro/chorus  x 2

Verse:

E|-------------------------------------------------------------------|
B|-------------------------------------------------------------------|
G|-----------------5-5-5-5-5-5-5-5-----------------7-7-7-7-7-7-7-7---|
D|-7-7-7-7-7-7-7-7-5-5-5-5-5-5-5-5-7-7-7-7-7-7-7-7-7-7-7-7-7-7-7-7---|
A|-7-7-7-7-7-7-7-7-3-3-3-3-3-3-3-3-7-7-7-7-7-7-7-7-5-5-5-5-5-5-5-5---|
E|-5-5-5-5-5-5-5-5-----------------5-5-5-5-5-5-5-5-------------------|
cont.
E|--------------------------------------------------------|
B|--------------------------------------------------------|
G|-----------------5-5-5-5-5-5-5-5-----------------7-7----|
D|-7-7-7-7-7-7-7-7-5-5-5-5-5-5-5-5-7-7-7-7-7-7-7-7-7-7-5-5|
A|-7-7-7-7-7-7-7-7-3-3-3-3-3-3-3-3-7-7-7-7-7-7-7-7-5-5-5-5|
E|-5-5-5-5-5-5-5-5-----------------5-5-5-5-5-5-5-5-----3-3|

I'm sorry I don't know the solo but I'm not that good.
Maybe someone who is that good can do it.

That's all you need to know.  Just listen to the song to figure out what part
goes where, but it's pretty straighforward.  Rate this please, thanks.
Tap to rate this tab
 
# A B C D E F G H I J K L M N O P Q R S T U V W X Y Z