Song name
# A B C D E F G H I J K L M N O P Q R S T U V W X Y Z

Anti Heros - Tradition tab

Band: Anti-Heros
Song: The Tradition

tabbed by jam9383@yahoo.com


Intro
e---------------------------------------------------------------------|
B----9-9---9-9---9-9-7-7----------------------------------------------|
G----9-9---9-9---9-9-7-7----------------------------------------------|
D--9-9-9-9-9-9-9-9-9-7-7----------------------------------------------|
A--7-7-7-7-7-7-7-7-7-5-5----------------------------------------------|
E---------------------------------------------------------------------|

Verse
e---------------------------------------------------------------------|
B---------------------------------------------------------------------|
G-------------------9-9-9-9-9-9-9-------------------------------------|
D---9-9-9-9-7-7-7-7-9-9-9-9-9-9-9-------------------------------------|
A---9-9-9-9-7-7-7-7-7-7-7-7-7-7-7-------------------------------------|
E---7-7-7-7-5-5-5-5---------------------------------------------------|


Chorus

e---------------------------------------------------------------------|
B---------------------------------------------------------------------|
G--9-9-9-9------------------------------------------------------------|
D--9-9-9-9--11-11-11--9-9-9--7-7-7------------------------------------|
A--7-7-7-7--11-11-11--9-9-9--7-7-7------------------------------------|
E-----------9--9--9---7-7-7--5-5-5------------------------------------|

Bridge
e---------------------------------------------------------------------|
B-7--7-7--7--9---9--9----9----12--12-12--12--15-15---12-15b-----------|
G-9b-9-9b-9--11b-11-11b--11---14b-14-14b-14--14-14b-------------------|
D---------------------------------------------------------------------|
A---------------------------------------------------------------------|
E---------------------------------------------------------------------|

comments or corrections contact me and please rate
Tap to rate this tab
# A B C D E F G H I J K L M N O P Q R S T U V W X Y Z