Song name
# A B C D E F G H I J K L M N O P Q R S T U V W X Y Z

Anti Heros - Im An Anti Hero tab

Artist:  The Anti-Heros
Song:  I'm an Anti-hero
Album:  I'm not sure
Track:  I'm not sure
Tabbed by:  Rick  (RCGoalie1@aol.com)
AIM:  unhlax23

Chords

A5  (577xxx)
D5  (x577xx)
G5  (355xxx)


Intro:  Bass stats this one off, then the guitar comes in with this:

E|---------------------------------------------------------------|
B|---------------------------------------------------------------|
G|-------------7-------------------------------7-----------------|
D|-7-7-7-7-7-7-7-5-5-5-5-7-7-7-7---7-7-7-7-7-7-7-5-5-5-5-7-7-7-7-|
A|-7-7-7-7-7-7-5-5-5-5-5-7-7-7-7---7-7-7-7-7-7-5-5-5-5-5-7-7-7-7-|
E|-5-5-5-5-5-5---3-3-3-3-5-5-5-5---5-5-5-5-5-5---3-3-3-3-5-5-5-5-|

The verse is the same as the intro

Chorus:


E|---x-x---x-x---x-x---x-x---|------------------|
B|---x-x---x-x---x-x---x-x---|------------------|
G|---x-x---x-x---x-x---x-x-7-|------------------|
D|-7-x-x-7-x-x-7-x-x-7-x-x-7-|-5-5-5-5-7-7-7-7--|
A|-7-x-x-7-x-x-7-x-x-7-x-x-5-|-5-5-5-5-7-7-7-7--|
E|-5-x-x-5-x-x-5-x-x-5-x-x---|-3-3-3-3-5-5-5-5--|

To play the chorus you play the first half three times and the second half once


That's it.  Listen to the song to figure out what goes where.  Rate this too please.
Tap to rate this tab
# A B C D E F G H I J K L M N O P Q R S T U V W X Y Z