Song name
# A B C D E F G H I J K L M N O P Q R S T U V W X Y Z

Anti Heros - Heroes And Zeros tab

Help us improve GuitareTab! Take a short survey!
Band: Anti-Heros
Song: Heroes and Zeros

tabbed by jam9383@yahoo.com

Verse

e---------------------------------------------------------------------|
B---------------------------------------------------------------------|
G-7-7-7-7-------------------------------------------------------------|
D-7-7-7-7-8-8-8-8-5-5-5-5--7-7-7-7------------------------------------|
A-5-5-5-5-8-8-8-8-5-5-5-5--7-7-7-7------------------------------------|
E---------6-6-6-6-3-3-3-3--5-5-5-5------------------------------------|

Chorus

e---------------------------------------------------------------------|
B---------------------------------------------------------------------|
G-10-10-10------------------------------------------------------------|
D-10-10-10--10-10-10--7-7-7-7-7--8-8-8--------------------------------|
A-8--8--8---10-10-10--7-7-7-7-7--8-8-8--------------------------------|
E-----------8--8--8---5-5-5-5-5--6-6-6--------------------------------|


comment and corrections contact me rate please
Related for Heroes And Zeros tab