Song name
# A B C D E F G H I J K L M N O P Q R S T U V W X Y Z

Anti Heros - Herbert Moonstomp tab

Band: Anti-Heros
Song:The Herbert Moonstomp


tabbed by jam9383@yahoo.com


Verse

e---------------------------------------------------------------------|
B---------------------------------------------------------------------|
G----------7-7---7-7-7-7-5-5---5-5-5-4-5---5-5-5-7-7------------------|
D--5-5-5-5-7-7---7-7-7-7-5-5---5-5-5-4-5---5-5-5-7-7-5-5-5-5----------|
A--5-5-5-5-5-5---5-5-5-5-3-3---3-3-3-2-3---3-3-3-5-5-5-5-5-5----------|
E--3-3-3-3-------------------------------------------3-3-3-3----------|

Chorus

e---------------------------------------------------------------------|
B---------------------------------------------------------------------|
G-----------------------------------------5-5-------------------------|
D--3-3-3-3--5-5---5-5-5-5-5------3-3-3-3--5-5--5-5-5-5-5--------------|
A--3-3-3-3--3-3---5-5-5-5-5------3-3-3-3--3-3--5-5-5-5-5--------------|
E--1-1-1-1--------3-3-3-3-3------1-1-1-1-------3-3-3-3-3--------------|

Solo

e---------------------------------------------------------------------|
B---8-8-6h8-----------------------------------------------------8-8-\-|
G------------8-8-8----8-8p6-4--6p4p3-6p4p3-6p4p3-6p4p3--6-6-8---------|
D---------------------------------------------------------------------|
A---------------------------------------------------------------------|
E---------------------------------------------------------------------|

e--15-15-13-------------------------15-15-15-15-15-15-15-15-13--------|
B-----------15-15--15-15-13--11-11--15-15-15-15-15-15-13-13-13--8-8~--|
G---------------------------------------------------------------------|
D---------------------------------------------------------------------|
A---------------------------------------------------------------------|
E---------------------------------------------------------------------|

any comments/corrections contact me, please rate
Tap to rate this tab
# A B C D E F G H I J K L M N O P Q R S T U V W X Y Z