Song name
# A B C D E F G H I J K L M N O P Q R S T U V W X Y Z

Anti Heros - Hurricane Bubba tab

Band:Anti-Heros
Song:Hurricane Bubba

tabbed by jam9383@yahoo.com


Intro:

Bass
e---------------------------------------------------------------------|
B---------------------------------------------------------------------|
G---------------------------------------------------------------------|
D--------4----4----7-7-5-4--------------------------------------------|
A---5-5----5----5----------------0-0--0-0-0---------------------------|
E---------------------------------------------------------------------|

Verse:

e---------------------------------------------------------------------|
B---------------------------------------------------------------------|
G-7-7-7-7-7-----------------------------------------------------------|
D-7-7-7-7-7-7-7-5-5-4-4-4-4-4-7-7-7-7-7-------------------------------|
A-5-5-5-5-5-7-7-5-5-4-4-4-4-4-7-7-7-7-7-------------------------------|
E-----------5-5-3-3-2-2-2-2-2-5-5-5-5-5-------------------------------|

Pre-Chorus:

e---------------------------------------------------------------------|
B---------------------------------------------------------------------|
G-4-4-4-4-4-7-7-7-7-7---4-4-4-4-4-7-7-7-7-7---------------------------|
D-4-4-4-4-4-7-7-7-7-7---4-4-4-4-4-7-7-7-7-7---------------------------|
A-2-2-2-2-2-5-5-5-5-5---2-2-2-2-2-5-5-5-5-5---------------------------|
E---------------------------------------------------------------------|

Chorus:

e------Pick\/Slide----------------------------------------------------|
B---------------------------------------------------------------------|
G-------x\-\---x------------------------------------------------------|
D--4-4--x-\-\--x---7-7-7-x-7-x-7--------------------------------------|
A--4-4--x--\-\-x---7-7-7-x-7-x-7--------------------------------------|
E--2-2-------------5-5-5-x-5-x-5--------------------------------------|

Pre Solo riff

e---------------------------------------------------------------------|
B---------------------------------------------------------------------|
G---7-7-9-11-12-11-9-11-----------------------------------------------|
D---------------------------------------------------------------------|
A---------------------------------------------------------------------|
E---------------------------------------------------------------------|


Solo

e------------------------------------------14-14-14-12-14~\------/----|
B-12--12--12---12--12--12-----14-15-14-12-----------------------------|
G-14b-14b-14b--14b-14b-14b--------------------------------------------|
D---------------------------------------------------------------------|
A---------------------------------------------------------------------|
E---------------------------------------------------------------------|

e-------------------------------------14~--/-----\--------------------|
B-12--12--12---12--12--12----12-14b-----------------------------------|
G-14b-14b-14b--14b-14b-14b--------------------------------------------|
D---------------------------------------------------------------------|
A---------------------------------------------------------------------|
E---------------------------------------------------------------------|

If any corrections are needed contact me
Tap to rate this tab
# A B C D E F G H I J K L M N O P Q R S T U V W X Y Z