Song name
# A B C D E F G H I J K L M N O P Q R S T U V W X Y Z

Anti Heros - Disco Riot tab

Band: Anti-Heros
Song: Disco Riot


tabbed by jam9383@yahoo.com


Intro

e---------------------------------------------------------------------|
B---------------------------------------------------------------------|
G--9-------9--------9-------9-----9-9-9-9-9---------------------------|
D--9-------9--------9-------9-----9-9-9-9-9---------------------------|
A--7-------7--------7-------7-----7-7-7-7-7---------------------------|
E---------------------------------------------------------------------|

Verse

e---------------------------------------------------------------------|
B---------------------------------------------------------------------|
G----------5-5-5------------------------------------------------------|
D--2-2-2-2-5-5-5-7-7-7-7---5-5-4--------------------------------------|
A--2-2-2-2-3-3-3-7-7-7-7---5-5-4--------------------------------------|
E--0-0-0-0-------5-5-5-5---3-3-2--------------------------------------|

Chorus

e---------------------------------------------------------------------|
B---------------------------------------------------------------------|
G--9-9-9-9-7-7-5-5----------------------------------------------------|
D--9-9-9-9-7-7-5-5-7-7-7-7-5-5-5-5------------------------------------|
A--7-7-7-7-5-5-3-3-7-7-7-7-5-5-5-5------------------------------------|
E------------------5-5-5-5-3-3-3-3------------------------------------|

any corrections/comments contact me. please rate
Tap to rate this tab
# A B C D E F G H I J K L M N O P Q R S T U V W X Y Z