Song name
# A B C D E F G H I J K L M N O P Q R S T U V W X Y Z

Anti Heros - All Heil To Santa tab

Band: Anti-Heros
Song: All Heil to Santa

Tabbed by jam9383@yahoo.com


Intro:

with verse as backing guitar
e------------------------------------10-12b-12b-12-10-----------------|
B-------------10-12-10---10-12-10-12-------------------12~------------|
G--9-12-9-12----------------------------------------------------------|
D---------------------------------------------------------------------|
A---------------------------------------------------------------------|
E---------------------------------------------------------------------|

e------------------------------------10-12b-12b-12-10h12h14-10--------|
B-------------10-12-10---10-12-10-12-----------------------------12~--|
G--9-12-9-12----------------------------------------------------------|
D---------------------------------------------------------------------|
A---------------------------------------------------------------------|
E---------------------------------------------------------------------|


Pre-Verse:

e---------------------------------------------------------------------|
B---------------------------------------------------------------------|
G---------------------------------------------------------------------|
D--5-6-7/------------7---7---7----------------------------------------|
A--5-6-7/------------7---7---7----------------------------------------|
E--3-4-5/------------5---5---5----------------------------------------|

Verse:

e---------------------------------------------------------------------|
B---------------------------------------------------------------------|
G----------7-7-7-7----------------------------------------------------|
D-7-7-7-7--7-7-7-7--5-5-5-5--7-7-7-7----------------------------------|
A-7-7-7-7--5-5-5-5--5-5-5-5--7-7-7-7----------------------------------|
E-5-5-5-5-----------3-3-3-3--5-5-5-5----------------------------------|

Chorus:

e---------------------------------------------------------------------|
B---------------------------------------------------------------------|
G----------7-7-7-7----------------------------------------------------|
D-7--7--7--7-7-7-7--5--5--5--7-7-7-7----------------------------------|
A-7--7--7--5-5-5-5--5--5--5--7-7-7-7----------------------------------|
E-5--5--5-----------3--3--3--5-5-5-5----------------------------------|

Chorus End

e---------------------------------------------------------------------|
B---------------------------------------------------------------------|
G---9---9--9----------------------------------------------------------|
D---9---9--9-----7----------------------------------------------------|
A---7---7--7-----7----------------------------------------------------|
E----------------5----------------------------------------------------|

Solo:

e---------------------------------------------------------10-12b------|
B-------------------------------10---10-12----------10-12-------------|
G-9-9-9-9-12p9-12-12-11-9-7-5-7----------------9-12-------------------|
D---------------------------------------------------------------------|
A---------------------------------------------------------------------|
E---------------------------------------------------------------------|

e--12b-10-12-10-------------------------------------------------------|
B---------------12-10-----------------10~-----------10-13-15-17b-17b--|
G----------------------12-11-9-7-5-7----------9-12--------------------|
D---------------------------------------------------------------------|
A---------------------------------------------------------------------|
E---------------------------------------------------------------------|

e------------------------------------------------------5~-------------|
B--17-15-13-10-13-15-10~-----5b--p3-----------------------------------|
G-----------------------------------5----12-11-9-7-5-7----------------|
D---------------------------------------------------------------------|
A---------------------------------------------------------------------|
E---------------------------------------------------------------------|

any comments/corrections needed contact me, please rate
Tap to rate this tab
# A B C D E F G H I J K L M N O P Q R S T U V W X Y Z