Song name
# A B C D E F G H I J K L M N O P Q R S T U V W X Y Z

Anti-nowhere League - Reck A Nowhere tab

Anti-nowhere League
Reck A Nowhere

First part only                x2                               x2
E--------------------------------|--------------------------------|
B--------------------------------|--------------------------------|
G--------------------------------|-9-9--9--9-9--9--9-9--9--9-9--9-|
D-7-7--7--7-7--7--7-7--7--7-7--7-|-9-9--9--9-9--9--9-9--9--9-9--9-|
A-7-7--7--7-7--7--7-7--7--7-7--7-|-7-7--7--7-7--7--7-7--7--7-7--7-|
E-5-5--5--5-5--5--5-5--5--5-5--5-|--------------------------------|

E--------------------------------|--------------------------------|
B--------------------------------|--------------------------------|
G-7-7--7--7-7--7--6-6--6--6-6--6-|-4-4--4--4-4--4--4-4--4--4-4--4-|
D-7-7--7--7-7--7--6-6--6--6-6--6-|-4-4--4--4-4--4--4-4--4--4-4--4-|
A-5-5--5--5-5--5--4-4--4--4-4--4-|-2-2--2--2-2--2--2-2--2--2-2--2-|
E--------------------------------|--------------------------------|

Rest of song            x2                        x2
E-------------------------|-------------------------|
B-------------------------|-------------------------|
G-------------------------|-9-9-9-9-9-9-9-9-9-9-9-9-|
D-7-7-7-7-7-7-7-7-7-7-7-7-|-9-9-9-9-9-9-9-9-9-9-9-9-|
A-7-7-7-7-7-7-7-7-7-7-7-7-|-7-7-7-7-7-7-7-7-7-7-7-7-|
E-5-5-5-5-5-5-5-5-5-5-5-5-|-------------------------|

E-------------------------|-------------------------|
B-------------------------|-------------------------|
G-7-7-7-7-7-7-6-6-6-6-6-6-|-4-4-4-4-4-4-4-4-4-4-4-4-|
D-7-7-7-7-7-7-6-6-6-6-6-6-|-4-4-4-4-4-4-4-4-4-4-4-4-|
A-5-5-5-5-5-5-4-4-4-4-4-4-|-2-2-2-2-2-2-2-2-2-2-2-2-|
E-------------------------|-------------------------|

****************************************************************************
For the first part just get the strumming pattern right. super simple to follow and play
Tap to rate this tab
# A B C D E F G H I J K L M N O P Q R S T U V W X Y Z