Song name
# A B C D E F G H I J K L M N O P Q R S T U V W X Y Z

Anti-nowhere League - Woman tab

song - Woman
band - Anti - Nowhere League

Tabbed by - LastCaress88

I know this tab is 100% correct
Ive looked everywhere for a right tab of this song,and i couldnt find one so i decided
to tab it the right way.

intro:

e----------------l
B----------------l
G----------------l
D----------------l
A---4-2-4-2-1-2--l
E-2--------------l

Verse : 

( * = palm mute)

e-------------------------------------------------------l
B-------------------------------------------------------l
G----------666-6-------------444-4-------------666-6----l
D-444-4----666--6---444-4----444--4---444-4----666--6---l
A-444--4---444---4--444--4---222---2--444--4---444---4--l
E-222---2-----------222---2-----------222---2-----------l
   **       **       **       **       **       **

Chorus thing

( / = slide)

e---------------------------l
B---------------------------l
G--8/999-8/999-8/999-8/999--l
D--8/999-8/999-8/999-8/999--l
A--6/777-6/777-6/777-6/777--l
E---------------------------l

e---------------------------------------------l
B---------------------------------------------l
G--999999--------999999--------999999---------l
D--999999-999999-999999-777777-999999-999999--l
A--777777-999999-777777-777777-777777-999999--l
E---------777777--------555555--------777777--l
Tap to rate this tab
 
# A B C D E F G H I J K L M N O P Q R S T U V W X Y Z